Libido - El Universo Chords

 
No chord
    
Standard guitar tuning:
E
A
D
G
B
E
No capo

Intro

Re M / Fa # /LaM / Mi m (tocar la primera cuerda al aire despues de "Mi m" hasta que comiense a cantar) Mi m Sol M Todo el universo somos tu y yo Do M Sol M Si 7 Mi m Tu sonrisa de ángel se durmió Mi m Sol M Duerme a mi lado Te imaginaré Do M Sol M Y luego de soñarte Si 7 MIm Despertaré Fa # La M Mi m Pa pa pa pa Pa pa pa pa Pa pa... Fa # La M Mi m Mi m Sol M Todo el infinito somos tu yo Do M Sol M Si 7 Mi m Tengo miedo no se vivir sin ti Mi m No se cuanto he cambiado Sol M No se cuando me fui Do M Sol M Me tiembla todo el cuerpo Si 7 Mi m Pensar en ti Fa # La M Mi m Pa pa pa pa Pa pa pa pa Pa pa... Fa/Mi La M Mi m Mi m / La M (2v) Do M / La M / Mi m / Do M
6/--------------------------------------------------------------------------/
5/--------------------------------------------------------------------------/
4/--------------------------------------------------------------------------/
3/--------12-12-7-----------------------------------------------------------/
2/---12-12------------12-12-------------------------------------------------/
1/-12------------10-12-----( 12-14-15-10-7-5-7-8-7-5-0 )--------------------/
6/-----------------------------------------------------------------/
5/-----------------------------------------------------------------/
4/-----------------------------------------------------------------/
3/---------- ------------------------------------------------------/
2/--8---------8-8 -----------12--------------12--12----------------/
1/-7-7-7-7-7-7-7-7-7-7-7-7-10--10-10-10-10-10--10--10-10-10-10-----/
6/------------------------------------------------------------------/
5/------------------------------------------------------------------/
4/------------------------------------------------------------------/
3/------------------------------------------------------------------/
2/------------------------------------------------------------------/
1/-12-10-14-12-12---------------------------------------------------/
Todo lo más bello somos tu y yo Do M Sol M Si 7 MI m Hoy quise besarte, no me atreví Fa # La M Mi m Pa pa pa pa Pa pa pa pa Pa pa... Fa # La M Mi m Pa pa pa pa Pa pa pa pa Pa pa... Pa pa pa pa Pa pa pa pa Pa pa...