Limp Bizkit - Counterfeit Chords

Intro2 Riff
Bridge1 Riff
 
No chord
Standard guitar tuning:
E
A
D
G
B
E
No capo

Intro

D-------------------------------------------------------------
A-------------------------------------------------------------
F-------------------------------------------------------------
C-------------------------------------------------------------
G-------------------------------------------------------------
C-0h2-2-2-0-2-0-2-0-3-3---0h2-2-2-0-2-0-2-0-2-0-3-------------

Chorus

D-----------------------------
A-----------------------------
F-----------------------------
C-0-0---------0-0-0-----------
G-0-0-*5-*5---0-0-0--*5-------
C-0-0---------0-0-0-----*9-*9-

Verse

D----------------------------------
A----------------------------------
F----------------------------------
C---0---1---0---0-----0----1---0---
G-----3---1---1---0------3---1---0- (Repeat several times)
C-0-----------------0--------------

Interlude

D-----------------------------------
A-----------------------------------
F-----------------------------------
C----------6---6----------4---4/6---
G--------6---6----------4-----4/6--- (repeat several times)
C-4/5--6----------6\5-4-------4/6---
"2nd Chorus":
D-----------------------------------
A-----------------------------------
F-----------5-8-3-2----------------
C-0-0-0-0---5-8-3-2---0-0-0-3-5-1--- (repeat several times)
G-0-0-0-0---3-6-1-0---0-0-0-3-5-1---
C-0-0-0-0-------------0-0-0-3-5-1---
Lyrics: freakin' me out you wear a mask called counterfeit, you're freakin' me out you wear a mask - 5x freakin' me out you wear a mask called counterfeit, you're freakin' me out you wear a...fake hey man wake up and smell the concrete strange to see you've changed like the LB could be identity crisis but I can't buy this reality bites but that's what life is pitiful you, your hideous behavior hate what God gave ya, fakin all the flava artificial minds seekin out the new trends get in where you fit in quit thinkin like a has-been diggin in my culture let me let your punks know I'm an old school soldier with the funk flow a damn shame you wanna change yourself because you're sick of yourself well I'm sick of you too, fake you're a, a counterfeit, fake you know we figured you out well I'm sick of you too, fake you're a, a counterfeit, fake I wonder, I wonder I wonder what it's like to be a clone doin' nothin, nothin' on my own alone in your misery, you're bitin on my new style filed as a counterfeit, going down in history as nothin but a copy cat so if your fakin that you're phat you need a ballbat right where your head is at all your desperation causes separation now I grab the mic to intimidate your weakness screams from the limp on your siren phonies get the hint quick smacked with funk flick pain for the fakers fame can't maintain all these phonies you disregarded your life (disregarded your life) you disrespected your friends (you disrespected your friends) you've even stolen your appearance (stolen) from hangin out with my family but I should have never dropped my guard (shoulda never dropped my guard) so you could stab me in the back (stab me in the back) but you were faking me out (you were faking me out) just faking me out you wear a mask (you wear a mask) freaking me out you wear a mask called counterfeit, you're freaking me out you wear a mask called counterfeit - 6x now you're steadily startin to change you wanna rearrange your lifestyle with live like the wild child with the vibe alive you could lie to try and be so fly a lie but you deny you're a fake you know we figured you're a phony (fake) you know we figured you out (fake) you know we figured you out, figured you out, figured you out fake [a bunch of times]