Limp Bizkit - Faith Chords

Main Riff
 
No chord
Standard guitar tuning:
E
A
D
G
B
E
No capo

Intro

E-7-X---X---X-X-7-7-X-X-7-X---X---X-X-7-7-X-X-7-X---X---X-X-7-7-X-X
B-7-X---X---X-X-7-7-X-X-7-X---X---X-X-7-7-X-X-7-X---X---X-X-7-7-X-X
G-8-X-8-X-8-X-X-8-8-X-X-8-X-8-X-8-X-X-8-8-X-X-8-X-8-X-8-X-X-8-8-X-X
D-9-X-9-X-9-X-X-9-9-X-X-9-X-9-X-9-X-X-9-9-X-X-9-X-9-X-9-X-X-9-9-X-X
A-9-X-9-X-9-X-X-9-9-X-X-9-X-9-X-9-X-X-9-9-X-X-9-X-9-X-9-X-X-9-9-X-X
E-7-X-7-X-7-X-X-7-7-X-X-7-X-7-X-7-X-X-7-7-X-X-7-X-7-X-7-X-X-7-7-X-X
E-7-X-X-X-X-X-X-7
B-7-X-X-X-X-X-X-7
G-8-X-X-X-X-X-X-8
D-9-X-X-X-X-X-X-9
A-9-X-X-X-X-X-X-9
E-7-X-X-X-X-X-X-9

Verse

E-7-X-X-X-X-7-X-X-7-7-X-X-7-X-X-X-X-X-X-7-7-X-X
B-7-X-X-X-X-7-X-X-7-7-X-X-7-X-X-X-X-X-X-7-7-X-X
G-8-X-X-X-X-8-X-X-8-8-X-X-8-X-X-X-X-X-X-8-8-X-X
D-9-X-X-X-X-9-X-X-9-9-X-X-9-X-X-X-X-X-X-9-9-X-X
A-9-X-X-X-X-9-X-X-9-9-X-X-9-X-X-X-X-X-X-9-9-X-X
E-7-X-X-X-X-7-X-X-7-7-X-X-7-X-X-X-X-X-X-7-7-X-X
E-5-X-5-X-5-X-X-5-5-X-X-7-X-X-X-X-7-X-X-7-7
B-5-X-5-X-5-X-X-5-5-X-X-7-X-X-X-X-7-X-X-7-7
G-6-X-6-X-6-X-X-6-6-X-X-8-X-X-X-X-8-X-X-8-8
D-7-X-7-X-7-X-X-7-7-X-X-9-X-X-X-X-9-X-X-9-9
A-7-X-7-X-7-X-X-7-7-X-X-9-X-X-X-X-9-X-X-9-9
E-5-X-5-X-5-X-X-5-5-X-X-7-X-X-X-X-7-X-X-7-7

Prechorus

E----------------------------------------------------------------------
B----------------------------------------------5----------------------5
G------8-------6-------7-------4------6----------------4----3-3h4p3-4--
D--------9-------7-------8-------5------7--------6-------5-------------
A---9--------7-------8-------5------7--------6-------5-----------------
E-7--------5-------6-------3-------5-------4-------3-------------------

Chorus

E--------------------------
B--------------------------
D-9-9--9-9--9-9--9-9-------
A-9-9--9-9--9-9--9-9-------
E-7-7--7-7--7-7--7-7--7h9p7
On the second prechorus, throw in these hammer on's in the needed places:
G-6h8p6--       G-7h9p7--
Well, I guess it would be nice, If I could touch your body, I know not everybody, Has got a body like me, But I gotta think twice, Before I give my heart away, And I know all the games you play