Limp Bizkit - Pollution Chords

Main Riff
 
No chord
DROP D guitar tuning
No capo
 e:-----------------------------------------------------------------|
 B:----------------------------------------------------------------|
 G:----------------------------------------------------------------|
 D:---2--2--0--3--3--0--2--1--0----2--2--0--3--3--0--2-----|    BEND LAST NOTE
 A:---2--2--0--3--3--0--2--1--0----2--2--0--3--3--0--2-----|    UP 1/2
 D:----------------------------------------------------------------|
 e:--------------------------------------------|
 B:--------------------------------------------| USE THIS FOR CHORUS AND PICK
 G:--------------------------------------------| MUTE WHEN HE SINGS THE VERSE
 D:--2--0--3--0--2--1--0--2--0--3--0--2--|
 A:--2--0--3--0--2--1--0--2--0--3--0--2--|
 D:--2--0--3--0--2--1--0--2--0--3--0--2--|