Limp Bizkit - Sour Chords

Intro Riff
Verse1 Riff
Verse1 Riff
Main Riff
 
No chord
Standard guitar tuning:
E
A
D
G
B
E
No capo
 G||---------------------------------------------------|
 D||-----------------------1-----------------------~1~-|
 A||-1h3-3-3-3-1h3-3-3-3-3---1-1h3-3-3-3-1h3-3333------|
 E||---------------------------------------------------|

Verse

 G||-----------6----------------||
 D||-----6-------------4-7\5----||
 A||-2h4----7----4-6------------||
 E||----------------------------||