Lower Than Atlantis - Another Sad Song Chords

 
No chord
DROP D guitar tuning
No capo
Asus7
e|--------X-----------------------------------------------------|
 B|-------0-----------------------------------------------------|
 G|-------4------------------------------------------- ---------|
 D|-------2-----------------------------------------------------|
 A|-------0-----------------------------------------------------|
 D|-------X-----------------------------------------------------|
Asus5
e|----------0---------------------------------------------------|
 B|---------0---------------------------------------------------|
 G|---------4---------------------------------------------------|
 D|---------2---------------------------------------------------|
 A|---------4---------------------------------------------------|
 D|---------X---------------------------------------------------|
Asus21
 e|--------------0----------------------------------------------|
 B|--------------0----------------------------------------------|
 G|--------------4----------------------------------------------|
 D|--------------2----------------------------------------------|
 A|--------------X----------------------------------------------|
 D|--------------4----------------------------------------------|
AsusZY
 e|---------------0---------------------------------------------|
 B|---------------0---------------------------------------------|
 G|---------------8---------------------------------------------|
 D|---------------6---------------------------------------------|
 A|---------------0---------------------------------------------|
 D|---------------7---------------------------------------------|
AsusXY
 e|----------------0--------------------------------------------|
 B|----------------0--------------------------------------------|
 G|----------------9--------------------------------------------|
 D|----------------7--------------------------------------------|
 A|----------------6--------------------------------------------|
 D|----------------X--------------------------------------------|

Verse 1

Asus7flashback to 1999, Asus5 Asus21 IAsus7t's the summer, not a cloud in the sky. Asus5 Asus21 Asus7 Present day, things have changed, Asus5 Asus21 SAsus7ummer's overAsus5, and it rains here everyday. Asus21

Chorus

AsusZY Asus5 AsusXY Don't cry, we all make mistakes from time to time, AsusZY Asus5 AsusXY Unfortunately for me, being me was mine. AsusZY Asus5 AsusXY Don't cry, we all make mistakes from time to time, AsusZY Asus5 AsusXY Unfortunately for me, being me was... mine.

Verse 2

Asus7 But how so,Asus5 Asus21 IAsus7'm only 21 yAsus5ears old. Asus21 IAsus7 used to be Asus5so happy, Asus21 Asus7 Now here's Asus5another sad song by a sad boy playAsus21ing the saddest chords he knows.

Chorus

AsusZY Asus5 AsusXY Don't cry, we all make mistakes from time to time, AsusZY Asus5 AsusXY Unfortunately for me, being me was mine. AsusZY Asus5 AsusXY Don't cry, we all make mistakes from time to time, AsusZY Asus5 AsusXY Unfortunately for me, being me was... mine [repeat verse chords] AsusZY Asus5 AsusXY Don't cry, we all make mistakes from time to time, AsusZY Asus5 AsusXY Unfortunately for me, being me was mine. AsusZY Asus5 AsusXY Don't cry, we all make mistakes from time to time, AsusZY Asus5 AsusXY Unfortunately for me, being me was... mine [repeat verse chords till end]