Luke Pickett - Cruel Love Chords

 
No chord
Standard guitar tuning:
E
A
D
G
B
E
No capo
-----------0----------0--0--0--|
-----------0----------0--0--0--|
--11----11---11----11-11-11-11-|
-----12---------12----12-12-11-|
----------------------x--9--9--|
9---------------------9--0--0--|
0--0--0--0-|
0--0--0--0-|
11-11-7--4-|
12-12-7--4-|
x--x--5--2-|
9--11-5--2-|
in the end
0--0--0--0--|
0--0--0--0--|
11-11-11-11-|
12-12-12-12-|
9--x--x--x--|
x--9--11-11-|
and so on