Machine Gun Fellatio - Many Words Chords

 
No chord
    
Standard guitar tuning:
E
A
D
G
B
E
No capo
FIRST BIT:
G||-----------||
D||*---------*||
A||*-1-------*||
E||------2----||
SECOND BIT:
G||---------------------------||
D||*-------------------------*||
A||*-1-1-1-1-1-1-4-----------*||
E||----------------2-2-2-2-2--||
That's it! How easy is that?! LOL