Mago De Oz - Judas Chords

 
No chord
Standard guitar tuning:
E
A
D
G
B
E
No capo

Intro

e|------------------------------------------------------------|
B|------------------------------------------------------------|
G|------------------------------------------------------------|
D|--------------4---5~---------4---5-----5-----------4---5----|
A|--12/----/5--(5)--5~----/5--(5)-(5)--5---5----/5--(5)-(5)---|
E|------------------------------------------------------------|
|------------------------|
|------------------------|
|------------------------|  3 Veces
|----7------7---5---5----|
|-5-(5)---5---5---5---5--|
|------------------------|
|------------------------------------------------------------|
|------------------------------------------------------------|
|------------------------------------------------------------|
|--------------4---5~---------4---5-----5-----------4---5----|
|--12/----/5--(5)--5~----/5--(5)-(5)--5---5----/5--(5)-(5)---|
|------------------------------------------------------------|
|--------------------------------------|
|--------------------------------------|
|--------------------------------------|
|-------12-------10------9--------5----|
|--/12-(12)--10-(10)--9-(9)----5-(5)---|
|--------------------------------------|
|----------------------------------------------------------------|
|----------------------------------------------------------------|
|----------------------------------------------------------------|
|--7---7--------7-------7-------7.--7--5----7---------7-------7.-|
|--5---5---5-5--5--5-5--5--5-5--5.--5--3----5--5-5-5--5--5-5--5.-|
|----------------------------------------------------------------|
VERSO 1: ""#Esta carta que..#""
|---------------------------------------------------|
|---------------------------------------------------|
|--7------------------------------------------------|
|--7------10-----9-----7-----5----5^7--7--10-----9--|
|--5---5--5---5--5--5--5--5--5--5-5^5--5--5---5--5--|
|---------------------------------------------------|
|---------------------------------------------------|
|---------------------------------------------------|
|--7------------------------------------------------|
|--7------10-----9-----7-----5----5^7--7--10-----9--|
|--5---5--5---5--5--5--5--5--5--5-5^5--5--5---5--5--|
|---------------------------------------------------|
|-------------------------------------------------------------------|
|-------------------------------------------------------------------|
|----------------------------------------7--------------------------|
|--5----5--------7----5--------5--7--5---7------9-----10-----9--7.--|
|--3----3---5-5--3----3---3-3--3--3--3---5---5--5--5--5---5--5--5.--|
|-------------------------------------------------------------------|
VERSO 2: ""#Mi nombre es Judas...#""
|--10~------------10.---10~------------10.---|
|--10~------------10.---10~------------10.---|
|--------12^10^12-------------12^10^10-------|
|--------------------------------------------|
|--------------------------------------------|
|--------------------------------------------|
|--10~------------10----------10----------10----|
|--10~------------10----------10----------10----|
|--------12^10^12----12^10^12----12^10^12----12-|
|-----------------------------------------------|
|-----------------------------------------------|
|-----------------------------------------------|
|--8~---8---------8----8~---8---------8---------|
|--8~---8---------8----8~---8---------8---------|
|---------10^8^10---10--------10^8^10---10------|
|-----------------------------------------------|
|-----------------------------------------------|
|-----------------------------------------------|
|--10~------------10----------10----------10/---|
|--10~------------10----------10----------10/---|
|--------12^10^12----12^10^12----12^10^12-------|
|-----------------------------------------------|
|-----------------------------------------------|
|-----------------------------------------------|
PRECORO: ""#Mi morada es ...#""
|------------------------------------------------------------------|
|------------------------------------------------------------------|
|-----------------------------------------7~/-----------------7~/--|
|--12.--12--------5----------/7--5--------7~/----/7--5--------7~/--|
|--10.--10--------3----------/5-----8--5---------/5-----8--5-------|
|------------------------------------------------------------------|
|---------------------------------------------------------------|
|---------------------------------------------------------------|
|---------------------------------------------------------------|
|--12.--12--------5---------------------------------------------|
|--10.--10--------3-----------5-5-5-5-5-5-5-5-5------2-3-2-0----|
|------------------------------------------------3-5---------3--|
CORO: ""#Y aunque calzo las...#""
|-----------------------3-------3----------3.--3--|
|-----------------------3-------3----------3.--3--|
|--5--------7-----------4-------4----------4.--4--|
|--5--------7-----------5-------5----------5.--5--|
|--3--------5-----------5-------5----------5.--5--|
|--------------------3--3--3-3--3----3-3-3-3.--3--|
|-----------------------3-------3----------3.--3--|
|-----------------------3-------3----------3.--3--|
|--5--------7-----------4-------4----------4.--4--|
|--5--------7-----------5-------5----------5.--5--|
|--3--------5-----------5-------5----------5.--5--|
|--------------------3--3--3-3--3----3-3-3-3.--3--|
|--------------------------------------------|
|--------------------------------------------|
|-5.-5-------7-----------7---------5---------|
|-5.-5-------7--------7.-7---------5---------|
|-3.-3-------5--------9.-9---------3---------|
|------------------------0-------------------|
|-----------------------------|
|-----------------------------|
|-----------7-----------------|
|--5--------7--------5--------|
|--5--------5--------5--------|
|--3-----------------3--------|

Solo

""#Twwuaaan tirurin...#""
|---------------------------------------------------------------------|
|--------------------------------------------------18----------18-----|
|--17b19~~~~~~-(19)r17----15~~~---------15--17b19-(19)--17b19-(19)----|
|----------------------17-----------17--------------------------------|
|---------------------------------------------------------------------|
|---------------------------------------------------------------------|
|--------------------------------------------------------------------|
|--------18-------------------17.-17b18r17------------17.-17b18r17/--|
|-17b19-(19)--17b19r17^15-----17.-17b18r17--15----15--17.-17b18r17/--|
|-------------------------17-------------------17--------------------|
|--------------------------------------------------------------------|
|--------------------------------------------------------------------|
|--19b20r19--15---------------------------------------------------------|
|----------------18--15-------------------------------------------------|
|------------------------17--15-----------------------------------------|
|--------------------------------17--------------------------15--17-17~-|
|------------------------------------17--15----------15--17-------------|
|--------------------------------------------18--15---------------------|
|--------------------------------------------------15--|
|-------------18---------18---------18---------18------|
|--15--17b19-(19)-17b19-(19)-17b19-(19)-17b19----------|
|------------------------------------------------------|
|------------------------------------------------------|
|------------------------------------------------------|
   T     T     T     T     T     T     T     T     T     T     T     T
|--18^15-18^15-18^15-18^15-18^15-18^15-18^15-18^15-18^15-18^15-18^15-18^15-|
|--------------------------------------------------------------------------|
|--------------------------------------------------------------------------|
|--------------------------------------------------------------------------|
|--------------------------------------------------------------------------|
|--------------------------------------------------------------------------|
  T     T     T     T     T     T     T     T     T     T     T     T
|-18^15-18^15-18^15-18^15-18^15-18^15-18^15-18^15-18^15-18^15-18^15-18^15--|
|--------------------------------------------------------------------------|
|--------------------------------------------------------------------------|
|--------------------------------------------------------------------------|
|--------------------------------------------------------------------------|
|--------------------------------------------------------------------------|
|--18b20~~~~-(20)r18b20~~----15^18^15----------15----------15--------|
|-------------------------------------18^15^18----18^15^18-----------|
|--------------------------------------------------------------17^15-|
|--------------------------------------------------------------------|
|--------------------------------------------------------------------|
|--------------------------------------------------------------------|
|--------------------------------------------------|
|--------17b18r17------------17b18r17b18r17--------|
|----15--17b18r17^15-----15--17b18r17b18r17--------|
|-17-----------------17---------------------17~~---|
|--------------------------------------------------|
|--------------------------------------------------|
|------------15--------15-15-------15/-------------|
|---------15-----------15----------15/-------------|
|--17b19---------17b19-------17b19-----------------|
|--------------------------------------------------|
|--------------------------------------------------|
|--------------------------------------------------|
CORO: ""#Y aunque calzo las...#""
|-----------------------3-------3----------3.--3--|
|-----------------------3-------3----------3.--3--|
|--5--------7-----------4-------4----------4.--4--|
|--5--------7-----------5-------5----------5.--5--|
|--3--------5-----------5-------5----------5.--5--|
|--------------------3--3--3-3--3----3-3-3-3.--3--|
|-----------------------3-------3----------3.--3--|
|-----------------------3-------3----------3.--3--|
|--5--------7-----------4-------4----------4.--4--|
|--5--------7-----------5-------5----------5.--5--|
|--3--------5-----------5-------5----------5.--5--|
|--------------------3--3--3-3--3----3-3-3-3.--3--|
|--------------------------------------------|
|--------------------------------------------|
|-5.-5-------7-----------7---------5---------|
|-5.-5-------7--------7.-7---------5---------|
|-3.-3-------5--------9.-9---------3---------|
|------------------------0-------------------|
|-----------------------------|
|-----------------------------|
|-----------7-----------------|
|--5--------7--------5--------|
|--5--------5--------5--------|
|--3-----------------3--------|
|---------------------------|
|---------------------------|
|---------------------------|
|---------------------------|
|-----------7--8--7---------|
|-6--8--10-----------10--8--|
CORO FINAL:
|------------------------------------------------------------------|
|------------------------------------------------------------------|
|-------------------------10b11r10^8-10b11~---------10--8-----AH---|
|-10----------12-----------------------------8--10---------8--10~~-|
|-8-----------10---------------------------------------------------|
|------------------------------------------------------------------|
|-------------------------------------------------------------------------|
|-------------------------11b13~---11b13~--(13)r11^8-------8--------------|
|----------------------------------------------------10b11---10^8-10b12~~-|
|-10----------12----------------------------------------------------------|
|-8-----------10----------------------------------------------------------|
|-------------------------------------------------------------------------|
|-------------------------11b13~~-11b13r11---8~~---------------------------|
|------------------------------------------------11--8---------------------|
|------------------------------------------------------10b11r10------8~~~--|
|-10.-10--------12-----------------------------------------------10--------|
|-8-.-8---------10---------------------------------------------------------|
|--------------------------------------------------------------------------|
|---------------------------------------------|----------------------|
|-------------------8~~----10b11r10-----------|----------------------|
|-------------------8~~----10b11r10--8--------|----------------------|
|-10--8---------10----------------------10~~--|--7----5----4----2----|
|--------10--8--------------------------------|--5----3----2----0----|
|---------------------------------------------|----------------------|

Outro

|---------------------------------------------------------------|
|---------------------------------------------------------------|
|---------------------------------------------------------------|
|---------------------------------------------------------------|
|--5---5-5--5-5--5-5--0-5---5-5--5-5--5-5--0-5---5-5--5-5--5-5--|
|--3---3-3--3-3--3-3--0-3---3-3--3-3--3-3--0-3---3-3--3-3--3-3--|
|------------------------------------------------------------|
|------------------------------------------------------------|
|------------------------------------------------------------|
|--7----5----4----2-----------------------5---5-5--5-5--5-5--|
|--5----3----2----0----5---5-5--5-5--5-5--3---3-3--3-3--3-3--|
|----------------------3---3-3--3-3--3-3---------------------|
|------------------------------------------------------|
|------------------------------------------------------|
|------------------------------------------------------|
|--------------------------------------------7----5----|
|--5---5-5--5-5--5-5---5-5-5-3-3-0-2--0-5----5----3----|
|--3---3-3--3-3--3-3--------------------3--------------|
|-----------------------------------------------------------|
|-----------------------------------------------------------|
|-----------------------------------------------------------|
|---------------------5---5-5--5-5--5-5---------------------|
|--5---5-5--5-5--5-5--3---3-3--3-3--3-3--5---5-5--5-5--5-5--|
|--3---3-3--3-3--3-3---------------------3---3-3--3-3--3-3--|
|----------------------------------------------------------------------|
|----------------------------------------------------------------------|
|-----------------7----9----7-----------------------7---7-7--7-7--7-7--|
|--7----5----4----5----7----5----7---7-7--7-7--7-7--5---5-5--5-5--5-5--|
|--5----3----2-------------------5---5-5--5-5--5-5---------------------|
|----------------------------------------------------------------------|
|--------------------------------------------------------------------|
|--------------------------------------------------------------------|
|--------------------9----7-----------------------7---7-7--7-7--7-7--|
|-7---7-7--7-7--7-7--7----5----7---7-7--7-7--7-7--5---5-5--5-5--5-5--|
|-5---5-5--5-5--5-5------------5---5-5--5-5--5-5---------------------|
|--------------------------------------------------------------------|
|------------------------------------------------------------|
|------------------------------------------------------------|
|---------------------9----7---------------------------------|
|--7---7-7--7-7--7-7--7----5----7----5-----------------------|
|--5---5-5--5-5--5-5------------5----3----5---5-5--5-5--5-5--|
|-----------------------------------------3---3-3--3-3--3-3--|
|--------------------------------------------------------------------|
|--------------------------------------------------------------------|
|--------------------------------------------------------------------|
|-5---5-5--5-5--5-5---------------------7----5-----------------------|
|-3---3-3--3-3--3-3--5---5-5--5-5--5-5--5----3----5---5-5--5-5--5-5--|
|--------------------3---3-3--3-3--3-3------------3---3-3--3-3--3-3--|
|--------------------------------------------------------------|
|--------------------------------------------------------------|
|--------------------------------------------------------------|
|--5---5-5--5-5--5-5-------------------------------------------|
|--3---3-3--3-3--3-3--5---5-5--5-5--5-5--3-5-3-0-2-0------2.---|
|---------------------3---3-3--3-3--3-3--------------3.--------|
|---------------------------------------------------------------|
|---------------------------------------------------------------|
|---------------------------------------------------------------|
|---------------------------------------------------------------|
|-------2.--------2.---------2.-------------2.------------------|
|--3.--------3.--------3.---------3.------------------3.--------|
|------------------------------------------------------------------|
|------------------------------------------------------------------|
|------------------------------------------------------------------|
|------------------------------------------------------------------|
|-2.----------2---2---2---2--------5.-----5.-----5.-----5.---------|
|-----------3---3---3---3---3.-----3.-----3.-----3.-----3.---------|
|------------------------------------------------|
|------------------------------------------------|
|------------------------------------------------|
|------------------------------------------------|
|--5--------------------5------------------------|
|--3--------------------3-Tadaaaaaaaaaaaaaaaaaan-|
Informacion Basica: El Signo _____ : es... / : Deslizar desde un traste a otro traste. ~ : Hacer vibrar la nota. (5): Las notas en un paréntesis son notas tocadas anteriormente que se dejan sonaar mientras se toca otra cuerda o nota. PM : Significa mutear con la palma de la mano derecha mientras se toca. . : Tocar una nota y mutearla completamente. ^ : Funciona como "hammer on" o "pull off". Se toca una nota y la nota que sigue se toca tan solo con quitar el dedo o ponerlo en el traste siguiente. b : Se toca una nota y se levanta la cuerda para producir la nota que sigue ej: 17b19 - se toca 17, se levanta la cuerda 2 notas y se produce 19 r : Después de aplicar un bend (b) a una nota, se regresa a la nota original ej: 17b19r17 - se toca 17, se levanta la cuerda 2 notas y se baja la cuerda para regresar a 17 T (taping) : Se toca la cuerda debajo de la T, ya sea con la púa o con algún dedo de la mano derecha Suerte!!! Minimo 1 hr diaria esta cancion y lista xD CYA!.