The Maine - Whoever She Is Chords

Main Riff
Main Riff
 
No chord
Standard guitar tuning:
E
A
D
G
B
E
No capo

Intro

0:00 - 0:008)
e|---3-3-3-2-2-2-3-3-3-2-2-2------------------------------------------------|
B|---3-3-3-3-3-3-3-3-3-3-3-3------------------------------------------------|
G|--------------------------------------------------------------------------|
D|--------------------------------------------------------------------------|
A|--------------------------------------------------------------------------|
E|--------------------------------------------------------------------------|
Verse X 4 (0:09 - 0:46)
e|---3--3---3--3---3--3---3--3----------------------------------------------|
B|---3--3---3--3---3--3---3--3----------------------------------------------|
G|----------2--2------------------------------------------------------------|
D|---2--2-----------------2--3----------------------------------------------|
A|---2--2----------2-2----3--3----------------------------------------------|
E|-----------------3-3------------------------------------------------------|

Pre-chorus

One full strum (0:47)
e|----3---------------------------------------------------------------------|
B|----3---------------------------------------------------------------------|
G|----2---------------------------------------------------------------------|
D|--------------------------------------------------------------------------|
A|--------------------------------------------------------------------------|
E|--------------------------------------------------------------------------|
Chorus X 3 (0:50 - 1:10)
e|---3--3---3--3---3--3---3-------------------------------------------------|
B|---3--3---3--3---3--3---3-------------------------------------------------|
G|-----------------2--2-----------------------------------------------------|
D|----------3--3----------2-------------------------------------------------|
A|---2--2---2--2----------2-------------------------------------------------|
E|---3--3-------------------------------------------------------------------|
...then
e|----3--3--3--3---3--------------------------------------------------------|
B|----3--3--3--3---3--------------------------------------------------------|
G|-----------------2--------------------------------------------------------|
D|----2--2--2--2------------------------------------------------------------|
A|----3--3--3--3------------------------------------------------------------|
E|--------------------------------------------------------------------------|
Verse X 5 (1:12 - 1:49) You'll play this one extra time before John begins singing
That's the reason for playing five times instead of four.
e|---3--3---3--3---3--3---3--3----------------------------------------------|
B|---3--3---3--3---3--3---3--3----------------------------------------------|
G|----------2--2------------------------------------------------------------|
D|---2--2-----------------2--3----------------------------------------------|
A|---2--2----------2-2----3--3----------------------------------------------|
E|-----------------3-3------------------------------------------------------|

Pre-chorus

One full strum (1:50)
e|----3---------------------------------------------------------------------|
B|----3---------------------------------------------------------------------|
G|----2---------------------------------------------------------------------|
D|--------------------------------------------------------------------------|
A|--------------------------------------------------------------------------|
E|--------------------------------------------------------------------------|
Chorus X 3 (1:54 - 2:13)
e|---3--3---3--3---3--3---3-------------------------------------------------|
B|---3--3---3--3---3--3---3-------------------------------------------------|
G|-----------------2--2-----------------------------------------------------|
D|----------3--3----------2-------------------------------------------------|
A|---2--2---2--2----------2-------------------------------------------------|
E|---3--3-------------------------------------------------------------------|
...then
e|----3--3--3--3---3--------------------------------------------------------|
B|----3--3--3--3---3--------------------------------------------------------|
G|-----------------2--------------------------------------------------------|
D|----2--2--2--2------------------------------------------------------------|
A|----3--3--3--3------------------------------------------------------------|
E|--------------------------------------------------------------------------|

Bridge

Right after the chorus play this, around 2:15. Keep playing until 2:20 and John
singing again, "And every day..."
e|----3--3--3--3------------------------------------------------------------|
B|----3--3--3--3------------------------------------------------------------|
G|--------------------------------------------------------------------------|
D|----2--2--2--2------------------------------------------------------------|
A|----3--3--3--3------------------------------------------------------------|
E|--------------------------------------------------------------------------|
Then play this progression for the rest of the bridge. Play this three times until about 2:37.
e|----3---3---3---3---------------------------------------------------------|
B|----3---3---3---3---------------------------------------------------------|
G|--------2-----------------------------------------------------------------|
D|----2-------2-------------------------------------------------------------|
A|----3-------2---2---------------------------------------------------------|
E|----------------3---------------------------------------------------------|
Play each chord one with one full strum  at "To hell with..." (Around 2:37)
e|----3---3---3-------------------------------------------------------------|
B|----3---3---3-------------------------------------------------------------|
G|--------2-----------------------------------------------------------------|
D|----2-------2-------------------------------------------------------------|
A|----3-------2-------------------------------------------------------------|
E|--------------------------------------------------------------------------|
(2:47) Chorus X 6
e|---3--3---3--3---3--3---3-------------------------------------------------|
B|---3--3---3--3---3--3---3-------------------------------------------------|
G|-----------------2--2-----------------------------------------------------|
D|----------3--3----------2-------------------------------------------------|
A|---2--2---2--2----------2-------------------------------------------------|
E|---3--3-------------------------------------------------------------------|
...then
e|----3--3--3--3---3--------------------------------------------------------|
B|----3--3--3--3---3--------------------------------------------------------|
G|-----------------2--------------------------------------------------------|
D|----2--2--2--2------------------------------------------------------------|
A|----3--3--3--3------------------------------------------------------------|
E|--------------------------------------------------------------------------|

Outro

e|---3-3-3-2-2-2-3-3-3-2-2-2------------------------------------------------|
B|---3-3-3-3-3-3-3-3-3-3-3-3------------------------------------------------|
G|--------------------------------------------------------------------------|
D|--------------------------------------------------------------------------|
A|--------------------------------------------------------------------------|
E|--------------------------------------------------------------------------|