Mason Jennings - Birds Flying Away Chords

 

Am

variations
4 fr
         
         
         
         
1
3
4
1
1
1
6 fr
         
         
         
         
X
X
1
3
4
2
4 fr
         
         
         
         
X
X
3
1
1
1
         
         
         
         
4
2
1
X
X
X
8 fr
         
         
         
         
X
4
3
1
2
X
11 fr
         
         
         
         
X
1
3
4
2
1

Em

variations
6 fr
         
         
         
         
X
1
3
4
2
1
         
         
         
         
X
X
1
3
4
2
3 fr
         
         
         
         
X
4
2
1
X
X
6 fr
         
         
         
         
X
1
X
X
2
1
3 fr
         
         
         
         
X
4
3
1
2
X
11 fr
         
         
         
         
1
3
4
1
1
1
No chord
D guitar tuning
No capo
    G#M   D#M     play chords like this. Do this 4 times
D#|--x-----x---|------------------------------------------------------------|
A#|--x-----x---|------------------------------------------------------------|
 G|--4-----0---|------4---------0-------------------------------------------|
 D|--6-----1---|------6---------1-------------------------------------------|
 A|--6-----1---|----6---6-4---1---4-6---------------------------------------|
D#|--5-----0---|--5---------0-----------------------------------------------|
AmI left my country when iEm was nineteen

Am1925 Em

AmAnd drifted to a town on the EmCuban coast AmMet a woman who became my Emlife AmAnd oh when i Emsaw her AmDarkness fled Emfrom me AmAnd flew like a blackbirdEm into the sun AmOn the day she marriedEm me DearAm god Em DearAm god I remAmember climbing Emup those AmshouldeEmrs AmComing up under Emyou like aAm lionEm AmComing downEm like we Amwere dyEming Dear goAmd Em AmBut now the Emdrumbirds Amcome for Emme AmOh now the dEmrumbirds cAmome for Emme AmLord give meEm forgiveness AmFor all that i'vEme done AmForgive me now of the Emweight i bear Don'Amt keep me on Emthe run Dear goAmd Em Dear goAmd Em I remeAmmber climbing Emup those AmshouldeEmrs AmComing up under Emyou like aAm lionEm AmComing downEm like we Amwere dyEming Dear goAmd

Guitar solo

D#|-------------------------------------------------------------------------|
A#|-------------------------------------------------------------------------|
 G|---------4--3-4-6--8--8--8--8-6-4-3-6--6--6-4-3-6------------------------|
 D|-------6-6--6-6-6--8-----------------------------------------------------|
 A|--6--6-------------------------------------------------------------------|
D#|--5----------------------------------------------------------------------|
D#|-------------------------------------------------------------------------|
A#|-------------------------------------------------------------------------|
 G|---------4--3-4-6--8--8--8-9-8--8-9-8--9-8-6-4-3-------------------------|
 D|-------6-6--6-6-6--8-----------------------------------------------------|
 A|--6--6-------------------------------------------------------------------|
D#|--5----------------------------------------------------------------------|
Repeat both in same order Background Guitar
D#|------0-8-7-5--4---------------------------------------------------------|
A#|----1-------------3-3-4-3------------------------------------------------|
 G|--1----------------------------------------------------------------------|
 D|-------------------------------------------------------------------------|
 A|-------------------------------------------------------------------------|
D#|-------------------------------------------------------------------------|
| 0 open string | x Mute note any comments just email me.