Mason Jennings - Dr King Chords

 
No chord
Standard guitar tuning:
E
A
D
G
B
E
No capo
Intro/Verse Finger picking pattern:
eb--5------5----5------5----4------4-----4-----4----|
Bb------2-----2-----2-----2-----2-----2-----2-----3-|
Gb----4-----4-----4-----4-----4-----4-----4-----4---|
Db--------------------------------------------------|
Ab--0-----------0-----------0-------------0---------|
Eb--------------------------------------------------|
--2------2----2------2----------------------------|
------3-----3-----3-----3-2------2----2------2----|
----4-----4-----4-----4-------4-----4-----4-----4-|
--------------2-------------2-----2-----2-----2---|
--0-----------------------0-----------0-----------|
--------------------------------------------------|

Chorus

eb--------------------------------------------------|
Bb--2------2----2------2----4------4----4-----4-----|
Gb------2-----2-----2-----2-----2-----2-----2-----2-|
Db----4-----4-----4-----4-----4-----4-----4-----4---|
Ab--------------------------2-----------2-----------|
Eb--2-----------2-----------------------------------|x2 Then
--------------|
--0------0----|
------1-----1-|
----2-----2---|
--------------|
--0-----------|x4

Verse

Dr. King I think often of you And the love that you learned From Jesus

Verse repeat

Chorus

Alabama Alabama Bethlehem

Intro

one time through chords)

Verse

Chorus

Intro

one time through Chords)

Bridge

Up ahead us we've a mighty task To love the face behind hatred's mask 'cause on the day we understand our past God almighty we'll be free at last

Chorus

Outtro: Hold A and pick to the songs picking pattern