Matchbook Romance - If All Else Fails Chords

Main Riff
Interlude Riff
 

C

variations
4 fr
         
         
         
         
X
1
2
3
4
1
         
         
         
         
X
4
3
1
2
1
4 fr
         
         
         
         
X
1
4
4
4
X
6 fr
         
         
         
         
4
3
1
1
1
X
6 fr
         
         
         
         
3
2
1
1
1
4
9 fr
         
         
         
         
1
3
4
2
1
1

11 fr
         
         
         
         
X
X
1
3
4
3

A

variations
4 fr
         
         
         
         
1
3
4
2
1
1
4 fr
         
         
         
         
X
X
3
2
1
1
6 fr
         
         
         
         
X
X
1
2
4
3
         
         
         
         
3
2
1
1
1
4
8 fr
         
         
         
         
X
4
3
1
2
1
11 fr
         
         
         
         
X
1
2
3
4
X

11 fr
         
         
         
         
X
1
3
3
3
1
         
         
         
         
X
3
2
1
3 fr
         
         
         
         
X
1
2
3
4
1
8 fr
         
         
         
         
1
3
4
2
1
1
3 fr
         
         
         
         
X
1
X
3
4
1
5 fr
         
         
         
         
3
2
1
1
1
4
10 fr
         
         
         
         
X
X
1
3
4
3

12 fr
         
         
         
         
X
4
3
1
2
1
3 fr
         
         
         
         
X
         
         
         
         
1
3
4
1
1
1
         
         
         
         
X
X
3
1
1
1
3 fr
         
         
         
         
X
X
1
3
4
2
8 fr
         
         
         
         
X
1
3
4
2
1
5 fr
         
         
         
         
X
4
3
1
2
X

F

variations
         
         
         
         
1
3
4
2
1
1
         
         
         
         
X
X
3
2
1
1
6 fr
         
         
         
         
X
4
3
1
2
1
4 fr
         
         
         
         
X
X
1
2
4
3
9 fr
         
         
         
         
X
1
3
3
3
1
11 fr
         
         
         
         
4
3
1
1
1
X

11 fr
         
         
         
         
3
2
1
1
1
4

Em

variations
6 fr
         
         
         
         
X
1
3
4
2
1
         
         
         
         
X
X
1
3
4
2
3 fr
         
         
         
         
X
4
2
1
X
X
6 fr
         
         
         
         
X
1
X
X
2
1
3 fr
         
         
         
         
X
4
3
1
2
X
11 fr
         
         
         
         
1
3
4
1
1
1

Bm

variations
         
         
         
         
X
1
3
4
2
1
6 fr
         
         
         
         
1
3
4
1
1
1
         
         
         
         
X
1
3
4
2
X
6 fr
         
         
         
         
X
X
3
1
1
1
8 fr
         
         
         
         
X
X
1
3
4
2
10 fr
         
         
         
         
X
4
3
1
2
X
No chord
Standard guitar tuning:
E
A
D
G
B
E
No capo
Key: C Chords used:

A/C - x365xx

Intro

Part 1:
Bass

C Fm

G|-10-------8-------11-------10-8-10-|---------------8--------------| D|----11-11---11-11----11-11---------|---11---10-------8----11-10-8-| A|-----------------------------------|-8----8----8-8-----8----------| E|-----------------------------------|------------------------------|
               F                           Fm               Em
G|------13------11------10-11-10----|------10------10-|-----10-8------|
D|---11------11------11----------11-|---10------10----|---8------11-8-|
A|-9-------9-------9----------------|-8-------8-------|-6-------------|
E|----------------------------------|-----------------|---------------|
                 C                               Fm
G|----10----8-------11-------10-8-10-|-------------8-------------|
D|-11----11---11-11----11-11---------|---11---10-----8---11-10-8-|
A|-----------------------------------|-8----8----8-----8---------|
E|-----------------------------------|---------------------------|
               F                           Fm             Em
G|------13------11------10-11-10----|------10--------|-------------|
D|---11------11------11----------11-|---10----10-----|-------------|
A|-9-------9-------9----------------|-8----------8-8-|-6-6-6-6-6-6-|
E|----------------------------------|----------------|-------------|
Part 2:

C A C Bm A

G|-------------------------|-------------|-------|-------| D|-------6-6-6-4-4-4-3---3-|-------6-6-6-|-8-8-8-|-6-----| A|-4-4-4---------------4---|-3-3-3-------|-------|---8-4-| E|-------------------------|-------------|-------|-------|
       F        Fm      Em        Fm           Em
G|------------|-------|-------|-------------|-------------|
D|------4-4-4-|-3-3-3-|-1-1-1-|-------3-4-3-|-1-1-1-4-3---|
A|------------|-------|-------|-------------|-----------4-|
E|-2-2-2------|-------|-------|-1-1-1-------|-------------|
Guitar 2:
     x6                    x6
e|-------|-------------|-------|-------------|
B|-------|-------7-6---|-------|-------4-----|
G|---6---|---5-6-----6-|---6---|---5-6---6---|
D|-----6-|-------------|-----6-|-----------6-|
A|-4-----|-4-----------|-4-----|-4-----------|
E|-------|-------------|-------|-------------|

Verse 1

A subCdued AsilCenceBm A undFisturbedFm Em

Fm C A C C

Fm bEmy the sound of her breath So Ccarfully brush her AhaiCr Bm A back from Fher eyesFm Em Fm Em In sCteady AseqCuenceBm A one by FoneFm Em Fm She sClips away

Chorus 1

F So close your Ceyes and sAleep toF dream I'm by Cyour side No Emwords to Fspeak We'll set Cour course and Amake it Emthrough No matter how far FI go my heart remains with you

Verse 2

C And I'm not sureEm A C Fm what I'm Flooking forBm A C C But it's Cclear to

A C Bm A

the Fpurpose of my FmexsistanceEm Is Claying here in front of me

Chorus 2

F So close your Ceyes and sAleep toF dream I'm by Cyour side No Emwords to sFpeak We'll set Cour course and Amake it Emthrough No matter how far FI go

Bridge

And if Call else fails you can Emlook up at the sky BeFcause it's the same one that shines above you and AI And if Call else fails you can Emclose your eyes And I'll Fbe right beside you I'll be the one by Ayour side

Interlude

Guitar 2:
     x6
e|-------|-------------|
B|-------|-------7-6---|
G|---6---|---5-6-----6-|
D|-----6-|-------------| x6
A|-4-----|-4-----------|
E|-------|-------------|

C

Outro

Em No matter how much Fit hurts Em I wanted you to Fknow my heart remains with Cyou