Matchbook Romance - Monsters Chords

Intro Riff
Verse Riff
Chorus Riff
Chorus Riff
 

C

variations
4 fr
         
         
         
         
X
1
2
3
4
1
         
         
         
         
X
4
3
1
2
1
4 fr
         
         
         
         
X
1
4
4
4
X
6 fr
         
         
         
         
4
3
1
1
1
X
6 fr
         
         
         
         
3
2
1
1
1
4
9 fr
         
         
         
         
1
3
4
2
1
1

11 fr
         
         
         
         
X
X
1
3
4
3

Bm

variations
         
         
         
         
X
1
3
4
2
1
6 fr
         
         
         
         
1
3
4
1
1
1
         
         
         
         
X
1
3
4
2
X
6 fr
         
         
         
         
X
X
3
1
1
1
8 fr
         
         
         
         
X
X
1
3
4
2
10 fr
         
         
         
         
X
4
3
1
2
X
         
         
         
         
X
3
2
1
1
5 fr
         
         
         
         
1
4
3
1
2
1
5 fr
         
         
         
         
X
X
3
1
2
1
5 fr
         
         
         
         
1
X
X
2
4
3

Em

variations
6 fr
         
         
         
         
X
1
3
4
2
1
         
         
         
         
X
X
1
3
4
2
3 fr
         
         
         
         
X
4
2
1
X
X
6 fr
         
         
         
         
X
1
X
X
2
1
3 fr
         
         
         
         
X
4
3
1
2
X
11 fr
         
         
         
         
1
3
4
1
1
1

F

variations
         
         
         
         
1
3
4
2
1
1
         
         
         
         
X
X
3
2
1
1
6 fr
         
         
         
         
X
4
3
1
2
1
4 fr
         
         
         
         
X
X
1
2
4
3
9 fr
         
         
         
         
X
1
3
3
3
1
11 fr
         
         
         
         
4
3
1
1
1
X

11 fr
         
         
         
         
3
2
1
1
1
4
         
         
         
         
1
3
4
1
1
1
         
         
         
         
X
X
3
1
1
1
3 fr
         
         
         
         
X
X
1
3
4
2
8 fr
         
         
         
         
X
1
3
4
2
1
5 fr
         
         
         
         
X
4
3
1
2
X
         
         
         
         
X
3
2
1
3 fr
         
         
         
         
X
1
2
3
4
1
8 fr
         
         
         
         
1
3
4
2
1
1
3 fr
         
         
         
         
X
1
X
3
4
1
5 fr
         
         
         
         
3
2
1
1
1
4
10 fr
         
         
         
         
X
X
1
3
4
3

12 fr
         
         
         
         
X
4
3
1
2
1
3 fr
         
         
         
         
X

A

variations
4 fr
         
         
         
         
1
3
4
2
1
1
4 fr
         
         
         
         
X
X
3
2
1
1
6 fr
         
         
         
         
X
X
1
2
4
3
         
         
         
         
3
2
1
1
1
4
8 fr
         
         
         
         
X
4
3
1
2
1
11 fr
         
         
         
         
X
1
2
3
4
X

11 fr
         
         
         
         
X
1
3
3
3
1

E/G

variations
         
         
         
         
1
X
X
2
4
3
3 fr
         
         
         
         
X
X
3
1
2
1
8 fr
         
         
         
         
X
3
1
1
1
4
3 fr
         
         
         
         
1
4
3
1
2
1
No chord
Standard guitar tuning:
E
A
D
G
B
E
No capo
Key: C Chords used:

Intro

Bbm(plucking) x2 until Verses
e|-13----------13----------13----------12-13-14-16-|
B|-------14----------14----------14----------------|
G|----15----15----15----15----15----15-------------|
D|-------------------------------------------------|
A|-------------------------------------------------|
E|-------------------------------------------------|

Verse 1

Bm girl what's come between you and me? look right through me Bm i'll let it go i can't help this feeling anymore i won't go anywhere maybe you'll see me
Guitar 2:
e|-----------------------------|
B|-----------------------------|
G|-----------------------------|
D|-----------------------------| x5
A|--1/4\1--1/6\1--1/7\1--1/8\1-|
E|-----------------------------|

Refrain

Bm F/A C Em

Chorus

Bm we are we are the Fshaken we are the Cmonsters underneath Fmyour bed Fyeah believe what you Emread Bmwe are we are misFtaken we are the Cvoices inside Fmyour head Fyeah believe what you Emsee

Interlude

Bbm-- x4

Verse 2

it came as Bmno surprise you bring me back to life believe me you bleed for me i'll bleed for you i caught you walking through walls drowned with applause from the world that makes me crazy

C

Interlude

Bbm-----E(hold)
Guitar 2: E(hold)
e|---------------|
B|---------------|
G|---------------|
D|-3-1---3-------|
A|-----4---4-3---|
E|-------------0-|

Bm F/A A E/G

Guitar 2: x18
e|-13----------13----------13----------13----------|
B|-------14----------14----------14----------14----|
G|----15----15----15----15----15----15----15----15-|
D|-------------------------------------------------|
A|-------------------------------------------------|
E|-------------------------------------------------|

Bridge

Bm we are the monsters F/A we are the monsters C we are the monsters Em underneath your bed Bm we are the voices F/A we are the voices C we are the voices Em underneath your bed Bm we are the monsters F/A we are the monsters C we are the monsters Emyeah yeah yeah yeah yeah
Guitar 2:

Bm F/A C Em

e|--------|--------|---------|------| B|--------|--------|---------|------| G|-3--3/6-|-5--5/8-|-6--6/10-|-3--2-| D|--------|--------|---------|------| x4 A|--------|--------|---------|------| E|--------|--------|---------|------|
Guitar 3: Tapping, L = Left Hand, R = Right Hand
    x4     x4     x4     x4
e|------|------|------|------|
B|------|------|------|------|
G|-15-3-|-13-3-|-11-3-|-10-3-|
D|------|------|------|------| x4
A|------|------|------|------|
E|------|------|------|------|
R L R L R L R L

Lead solo

Bm-F-C-Fm-F-Em- x2

Guitar 2:

Bm F

e|---------------------------|--------------------9-| B|---------------------------|----------------9b----| G|-8b--8-6----6----------6h8-|-8b--8-6----6---------| D|---------8---------6h8-----|---------8------------| A|---------------6h8---------|----------------------| E|---------------------------|----------------------|
       C         Fm
e|------------|------------|
B|-9--7--6----|------------|
G|----------8-|-6--5-------|
D|------------|-------8--7-|
A|------------|------------|
E|------------|------------|
                F
e|---------------------------------|
B|---------------------------------|
G|---------------------------------|
D|---------------------6-6-7-7-8-8-|
A|-------------6-6-8-8-------------|
E|-6-6-8-8-9-9---------------------|
                 Em
e|-----------------------------------|
B|-----------------6-6-9-9-10-10-9-9-|
G|---------6-6-8-8-------------------|
D|-6-6-8-8---------------------------|
A|-----------------------------------|
E|-----------------------------------|
     Bm       F        C                    Fm
e|---------|---------|---------|---------|------------|
B|---1h2p1-|---2h4p2-|---4h6p4-|-7-7-7-7-|-9--7--6--4-|
G|-3-------|-3-------|-3-------|---------|------------|
D|---------|---------|---------|---------|------------|
A|---------|---------|---------|---------|------------|
E|---------|---------|---------|---------|------------|
x4 x4 x2
             F
e|-----8-----9-----8-----9---8-|
B|-6-6---6-6---6-6---6-6---6---|
G|-----------------------------|
D|-----------------------------|
A|-----------------------------|
E|-----------------------------|
             Em
e|-----8-----9-----8-----9---8-|
B|-6-6---6-6---6-6---6-6---6---|
G|-----------------------------|
D|-----------------------------|
A|-----------------------------|
E|-----------------------------|

Outro

Bm we are we are the Fshaken we are the Cmonsters underneath Fmyour bed Fyeah believe what you Emsee Bm