Matmatah - Les Moutons Chords

 
3 fr
         
         
         
         
1
3
4
1
1
1
5 fr
         
         
         
         
X
X
1
3
4
2
3 fr
         
         
         
         
X
X
3
1
1
1
         
         
         
         
1
X
2
3
4
         
         
         
         
3
1
X
X
X
         
         
         
         
2
1
3
4

7 fr
         
         
         
         
X
4
3
1
2
X
10 fr
         
         
         
         
X
1
3
4
2
1
         
         
         
         
1
3
4
2
1
1
5 fr
         
         
         
         
X
4
3
1
2
1
3 fr
         
         
         
         
X
X
1
2
4
3
         
         
         
         
X
X
3
2
1
1
8 fr
         
         
         
         
X
1
3
3
3
1
10 fr
         
         
         
         
4
3
1
1
1
X

10 fr
         
         
         
         
3
2
1
1
1
4
No chord
Standard guitar tuning:
E
A
D
G
B
E
No capo

Gm 355333, F 133211

Nanala naganalalo lanalalaleno x4 GmOn a tondu les moutons Fet filé la lGmaine FEt réparé la moto avec la clé alGmlen GmOn a rencontré des filles pFas du tout vilaGmines FEt avec elles il y avait la Marie raGmnouen On a respiré du tri du trichloréthylene Et le lendemain on avait mauvaise haleine

Refrain

Nanala naganalalo lanalalaleno x4
e|---------------------------------------------------------------------------|
B|--------------11-10-------------11-10--8--------------8--------------------|
G|--/7----7h8-7--------7----7h8-7-----------7-------------7------------------|
D|--------------------------------------------10-8----------10-8-------------|
A|-------------------------------------------------10------------10----------|
E|---------------------------------------------------------------------------|
GmY'a trois francs de réduction Fsur les chocos GmBN FAlors pour en profiter on les prend par douzGmaine GmOn s'est envoyé une bonne Fbouteille de chGmouchen, FA la fin elle était vide, elle était plus Gmpleine Après on a fait du stop avec les bigoudènes Et on est allé en boîte mais y avait qu'des lesbiennes
Nanala naganalalo lanalalaleno x4
e|---------------------------------------------------------------------------|
B|--------------11-10-------------11-10--8--------------8--------------------|
G|--/7----7h8-7--------7----7h8-7-----------7-------------7------------------|
D|--------------------------------------------10-8----------10-8-------------|
A|-------------------------------------------------10------------10----------|
E|---------------------------------------------------------------------------|
On a jeté tous les Parisiens dedans la Seine On a noyé en même temps toutes les parisiennes On a trouvé du pétrole aux îles Kerguelen Et après on est partis pécho la sirène Ah y'en a un q'j'oublie toujours oh c'est Saddam Hussein Celui la nous pompe de l'air comme Jean-Marie le Pen On s'est roulé un cinq feuilles avec du pollen Et après on est tous tombé dans le lagen
Nanala naganalalo lanalalaleno x4
e|---------------------------------------------------------------------------|
B|--------------11-10-------------11-10--8--------------8--------------------|
G|--/7----7h8-7--------7----7h8-7-----------7-------------7------------------|
D|--------------------------------------------10-8----------10-8-------------|
A|-------------------------------------------------10------------10----------|
E|---------------------------------------------------------------------------|
Si notre chanson vous a plus oh donnez vous la peine De nous payer un bon coup oh pour reprendre haleine Je n'me souviens plus d'la suite alors c'est pas la peine De toute façon ce qu'il fallait c'était une rime en "N" Nanala naganalalo lanalalaleno x4