Matt Pond PA - Last Song Chords

 
         
         
         
         
2
3
1
4 fr
         
         
         
         
X
4
3
1
2
1
7 fr
         
         
         
         
X
1
4
4
4
X
2 fr
         
         
         
         
X
X
1
2
4
3
4 fr
         
         
         
         
4
3
1
2
1
7 fr
         
         
         
         
X
1
3
3
3
1

9 fr
         
         
         
         
4
3
1
1
1
X
9 fr
         
         
         
         
3
2
1
1
1
4
12 fr
         
         
         
         
1
3
4
2
1
1
4 fr
         
         
         
         
X
         
         
         
         
X
1
2
3
5 fr
         
         
         
         
1
3
4
2
1
1
2 fr
         
         
         
         
X
1
1
1
4
         
         
         
         
X
X
1
2
2 fr
         
         
         
         
3
2
1
1
1
4
7 fr
         
         
         
         
X
X
1
3
4
3

9 fr
         
         
         
         
X
4
3
1
2
1
12 fr
         
         
         
         
X
1
3
3
3
1
         
         
         
         
X
X
1
3
2
2 fr
         
         
         
         
X
4
3
1
2
1
5 fr
         
         
         
         
X
1
2
3
4
1
5 fr
         
         
         
         
X
1
4
4
4
X
7 fr
         
         
         
         
4
3
1
1
1
X
7 fr
         
         
         
         
3
2
1
1
1
4

10 fr
         
         
         
         
1
3
4
2
1
1
12 fr
         
         
         
         
X
X
1
3
4
3
5 fr
         
         
         
         
X
X
         
         
         
         
3
2
4
3 fr
         
         
         
         
1
3
4
2
1
1
         
         
         
         
2
1
3
4
3 fr
         
         
         
         
X
X
3
2
1
1
5 fr
         
         
         
         
X
X
1
3
4
3
7 fr
         
         
         
         
X
4
3
1
2
1

10 fr
         
         
         
         
X
1
2
3
4
X
10 fr
         
         
         
         
X
1
3
3
3
1
12 fr
         
         
         
         
3
2
1
1
1
4
7 fr
         
         
         
         
1
3
4
2
1
1
         
         
         
         
X
2
1
X
3
         
         
         
         
X
1
4
4
4
X
         
         
         
         
X
1
3
3
3
1
4 fr
         
         
         
         
4
3
1
1
1
X
4 fr
         
         
         
         
3
2
1
1
1
4

9 fr
         
         
         
         
X
X
1
3
4
3
11 fr
         
         
         
         
X
4
3
1
2
1

F

variations
         
         
         
         
1
3
4
2
1
1
         
         
         
         
X
X
3
2
1
1
6 fr
         
         
         
         
X
4
3
1
2
1
4 fr
         
         
         
         
X
X
1
2
4
3
9 fr
         
         
         
         
X
1
3
3
3
1
11 fr
         
         
         
         
4
3
1
1
1
X

11 fr
         
         
         
         
3
2
1
1
1
4
         
         
         
         
2
7 fr
         
         
         
         
X
1
3
1
2
1
         
         
         
         
X
X
1
3
2
2
         
         
         
         
1
2
4
4
         
         
         
         
2
3
4
         
         
         
         
2
4

3 fr
         
         
         
         
X
3
2
1
5 fr
         
         
         
         
X
2
1
3
1
4
7 fr
         
         
         
         
X
1
3
1
2
X
7 fr
         
         
         
         
X
1
3
1
2
4
12 fr
         
         
         
         
1
3
1
1
4
1
No chord
Standard guitar tuning:
E
A
D
G
B
E
No capo

E A D G B E

G         --3-0-0-0-3-0--|
G9sus4    --3-2-0-0-3-0--|
A7sus4    --x-0-2-0-3-0--|
D13/F#    --x-x-4-0-3-2--|
Em7       --0-2-2-0-3-0--|
Cadd9sus4 --x-3-2-0-3-0--|

Intro

[ G G G G G G G G ]

Verse 1

Verse 2 (0:14) Gcivilized, [A7Sus4] all our lives, not a brD13eathF [A7Sus4] the grass unmoved, to sleep insGide the stillness Gwithout blood, [A7Sus4] without air, all the stD13aresF [A7Sus4] averting eyes, this was what’s wGorse than dying

Chorus 1

0:42) my mind was sEm7et, Cadd9sus4 just like the sun’s red, but now the sGun is setting there have been sEm7ome, Cadd9sus4 that cut me good, the blood was thG9sus4ere for letting G
   [A7Sus4]    Em7    [A7Sus4]     G9sus4   G
E -5-(5)--3--0-(0)--5-(5)--3-3^12---------|
B ----------------------------------------|
G ----------------------------------------|
D ----------------------------------------|
A ----------------------------------------|
E ----------------------------------------|

Verse 3

1:16) Gthe weekend nights, [A7Sus4] can change your life, unfold your D13armsF [A7Sus4] one last surprise, something beGfore we die

Chorus 2

1:31) our eyes are clEm7osed, Cadd9sus4 once more will not roll, this killing Gis good killing despite the rEm7ed Cadd9sus4 and years and years of sinning, elizabGeth is winning
E -3----2---0--------------------0----------------------------------------|
B ---------------3-------------3---3-----------------3-------3-------3----|
G ---------------------------0---------------------0---0---0---0---0---0--|
D -----------------------------------------------0-------0-------0--------|
A ------------------------------------------------------------------------|
E ------------------------------------------------------------------------|
bikes on dirt roads in st. andrews under pines i’d let you win
E -3-2-0-------------------------0--------------------------------|
B -------3---------------------3---3-----------------3-------3----|
G ---------------------------0---------------------0---0---0---0--|
D ----------------------------------------------------------------|
A -----------------------------------------------3-------3--------|
E ----------------------------------------------------------------|
Canada is purity that has nothing to do with our skin
                   G G G G
E ----------------------|
B -----3-------3--------|
G ---0---0---0---0------|
D -0-------0------------|
A ----------------------|
E -----------------3----|
with our skin, with our skin
   [A7Sus4]    Em7    [A7Sus4]     G9sus4   G
E -5-(5)--3--0-(0)--5-(5)--3-3^12---------|
B ----------------------------------------|
G ----------------------------------------|
D ----------------------------------------|
A ----------------------------------------|
E ----------------------------------------|

Verse 4

Verse 5 (2:40) Gunrefined, [A7Sus4] the pitch of pines, grass stained shD13irtsF [A7Sus4] and fucked up hair, to breathe outGside the stillness Gwith your blood, [A7Sus4] and the air, withstand the stD13aresF [A7Sus4] straighten eyes, we do not fGear this dying

Chorus 3

3:09) our eyes are clEm7osed, Cadd9sus4 once more will not roll, this killing Gis good killing despite the rEm7ed Cadd9sus4 and years and years of sinning, elizabGeth is winning forget these lEm7ights, Cadd9sus4 we don’t need so much explaining, elizabG9sus4eth is winning

Outro

3:38)
E -G9sus412----0---Em710---------|       E -G9sus412-----G10---|
B -12-12---0-12-12-3-0--|       B -12-----12---|
G -0---------0----------| (x3)  G -0------0----|
D ----------------------|       D -------------|
A ----------------------|       A -------------|
E ----------------------|       E -------------|