Mayday Parade - Everything's An Illusion Chords

Main Riff
 
         
         
         
         
X
1
2
3
5 fr
         
         
         
         
1
3
4
2
1
1
2 fr
         
         
         
         
X
1
1
1
4
         
         
         
         
X
X
1
2
2 fr
         
         
         
         
3
2
1
1
1
4
7 fr
         
         
         
         
X
X
1
3
4
3

9 fr
         
         
         
         
X
4
3
1
2
1
12 fr
         
         
         
         
X
1
3
3
3
1

Fm

variations
         
         
         
         
1
3
4
1
1
1
4 fr
         
         
         
         
X
X
1
3
4
2
         
         
         
         
X
X
3
1
1
1
9 fr
         
         
         
         
X
1
3
4
2
1
6 fr
         
         
         
         
X
4
3
1
2
X

Asus2

variations
         
         
         
         
X
2
3
2 fr
         
         
         
         
4
1
1
1
X
X
4 fr
         
         
         
         
X
X
3
1
2
4
7 fr
         
         
         
         
X
X
1
3
4
1
9 fr
         
         
         
         
X
2
1
1
3
4
9 fr
         
         
         
         
X
3
1
1
2
4

12 fr
         
         
         
         
X
1
3
4
1
1
         
         
         
         
2
3
1
4 fr
         
         
         
         
X
4
3
1
2
1
7 fr
         
         
         
         
X
1
4
4
4
X
2 fr
         
         
         
         
X
X
1
2
4
3
4 fr
         
         
         
         
4
3
1
2
1
7 fr
         
         
         
         
X
1
3
3
3
1

9 fr
         
         
         
         
4
3
1
1
1
X
9 fr
         
         
         
         
3
2
1
1
1
4
12 fr
         
         
         
         
1
3
4
2
1
1
4 fr
         
         
         
         
X
         
         
         
         
X
X
1
3
2
2 fr
         
         
         
         
X
4
3
1
2
1
5 fr
         
         
         
         
X
1
2
3
4
1
5 fr
         
         
         
         
X
1
4
4
4
X
7 fr
         
         
         
         
4
3
1
1
1
X
7 fr
         
         
         
         
3
2
1
1
1
4

10 fr
         
         
         
         
1
3
4
2
1
1
12 fr
         
         
         
         
X
X
1
3
4
3
5 fr
         
         
         
         
X
X
No chord
Standard guitar tuning:
E
A
D
G
B
E
Capo on 2 fret
Key: A or Fm

Intro

 Bo
  F#msus4  Asus2   [D6/9]     E
e|---0---|---0---|---0---|---0---|
B|---0---|---0---|---0---|---0---|
G|---2---|---2---|---2---|---1---|
D|---4---|---2---|---0---|---2---|
A|---x---|---x---|---x---|---x---|
E|---x---|---x---|---x---|---x---|
   F#msus4           Asus2             [D6/9]              E
e|---------0-------|---------0-------|---------0-------|---------------0-|
B|-----0-----0---0-|-----0-----0---0-|-----0-----0---0-|-----0-------0---|
G|---2---2-----2---|---2---2-----2---|---2---2-----2---|---2---2---1-----|
D|-4---------------|-2---------------|-0---------------|-2-------2-------|
A|-----------------|-----------------|-----------------|-----------------|
E|-----------------|-----------------|-----------------|-----------------|
1 + 2 + 3 + 4 + 1 + 2 + 3 + 4 + 1 + 2 + 3 + 4 + 1 + 2 + 3 + 4 + Rhythm: The notes are picked in 8th notes, which are counted 1 and 2 and 3 and 4 and.(+=and) Tempo: About 90 Chords:
In the song the chords Brooks plays are power chords, which are

Fm A D E

e|-------|-------|-------|-------| B|-------|-------|-------|-------| G|-------|-------|-------|-------| D|-------|-------|---7---|-------| A|---4---|---7---|---5---|---2---| E|---2---|---5---|-------|---0---|
e|-------|-------|-------|-------|
B|-------|-------|-------|-------|
G|-------|-------|---2---|-------|
D|-------|---2---|---0---|-------|
A|---4---|---0---|-------|---2---|
E|---2---|-------|-------|---0---|
Also, feel free to play the full chords, they sound fine too.

Fm A D E

e|---2---|---0---|---2---|---0---| B|---2---|---2---|---3---|---0---| G|---2---|---2---|---2---|---1---| D|---4---|---2---|---0---|---2---| A|-------|---0---|-------|---2---| E|-------|-------|-------|---0---|

Intro

   F#msus4           Asus2             [D6/9]              E
e|---------0-------|---------0-------|---------0-------|---------------0-|
B|-----0-----0---0-|-----0-----0---0-|-----0-----0---0-|-----0-------0---|
G|---2---2-----2---|---2---2-----2---|---2---2-----2---|---2---2---1-----|
D|-4---------------|-2---------------|-0---------------|-2-------2-------|
A|-----------------|-----------------|-----------------|-----------------|
E|-----------------|-----------------|-----------------|-----------------|

Verse 1

FmI try to sleep, but my eyes are open AI can't think cause my heart is broken DAnd there's a bottle right next to me EI'll down a few drinks just to take the pain away FmI wanna say all the things I need to say AI won't lie, I'll just tell them honestly DIf God can take a friend away from me EThen I can say all I want and he won't do anything

Pre-chorus 1

FmMy tongue is weak and eveDry time I try to speak I can't say Anothing at Eall

Chorus 1

   Fmsus4           D                 Asus2             E
e|---------0-------|---------0-------|---------0-------|---------------0-|
B|-----0-----0---0-|-----0-----0---0-|-----0-----0---0-|-----0-------0---|
G|---2---2-----2---|---2---2-----2---|---2---2-----2---|---2---2---1-----|
D|-4---------------|-0---------------|-2---------------|-2-------2-------| x2
A|-----------------|-----------------|-----------------|-----------------|
E|-----------------|-----------------|-----------------|-----------------|
FmSleep well, my fDriend There will be Aanother moment we'll meet agEain, just let it go FmSleep well, gDoodnight You're something to reAmember I Ewish that you were here by my side

Interlude

Fm

Verse 2

FmI spend hours tryna make it through the day AI don't know if I'll ever be the same DIt's hard enough when you're all alone EIn the city that you love, now Atlanta's just a burial ground

Pre-chorus 2

FmMy tongue is weak and every tDime I try to speak I can't say Anothing, Enothing at all FmIt's hard to think when losing sDomeone only make you wanna sAcream And now that you're Egone

Chorus 2

FmSleep well, my fDriend There will be Aanother moment we'll meet agEain, just let it go FmSleep well, gDoodnight You're something to reAmember I Ewish that you were here by my side

Bridge

FmAll the stained pieces, I can't believe this A Amother shouldn't witness her Eson die at twenty-four (Please don't know this is for the hopeless, It's ripping me apart and I can't take it anymore) FmI will hold my tDongue for the rest of my lAife I Ecan't keep this up anymore

Chorus 3

FmSleep well, my fDriend There will be Aanother moment we'll meet agEain, just let it go FmSleep well, gDoodnight You're something to reAmember I Ewish that you were here by my Fmside By my Dside By my Aside By my Eside

Chorus 4

FmSleep well, gDoodnight You're something to reAmember I Ewish that you were here by my side

Outro

Repeat Intro picking.