McFly - Just My Luck Chords

 
3 fr
         
         
         
         
1
3
4
X
X
X
5 fr
         
         
         
         
X
X
1
3
4
X
10 fr
         
         
         
         
X
1
3
4
X
X
         
         
         
         
X
3 fr
         
         
         
         
X
X
         
         
         
         
1
3
4
X
X
X
3 fr
         
         
         
         
X
X
1
3
4
X
8 fr
         
         
         
         
X
1
3
4
X
X
         
         
         
         
X
X

B5

variations
         
         
         
         
X
1
3
4
X
X
6 fr
         
         
         
         
1
3
4
X
X
X
8 fr
         
         
         
         
X
X
1
3
4
X
6 fr
         
         
         
         
X
X
3 fr
         
         
         
         
X
1
3
4
X
X
8 fr
         
         
         
         
1
3
4
X
X
X
10 fr
         
         
         
         
X
X
1
3
4
X
3 fr
         
         
         
         
X
X
         
         
         
         
X
X
1
3
2
2 fr
         
         
         
         
X
4
3
1
2
1
5 fr
         
         
         
         
X
1
2
3
4
1
5 fr
         
         
         
         
X
1
4
4
4
X
7 fr
         
         
         
         
4
3
1
1
1
X
7 fr
         
         
         
         
3
2
1
1
1
4

10 fr
         
         
         
         
1
3
4
2
1
1
12 fr
         
         
         
         
X
X
1
3
4
3
5 fr
         
         
         
         
X
X
7 fr
         
         
         
         
1
3
4
2
1
1
         
         
         
         
X
2
1
X
3
         
         
         
         
X
1
4
4
4
X
         
         
         
         
X
1
3
3
3
1
4 fr
         
         
         
         
4
3
1
1
1
X
4 fr
         
         
         
         
3
2
1
1
1
4

9 fr
         
         
         
         
X
X
1
3
4
3
11 fr
         
         
         
         
X
4
3
1
2
1
         
         
         
         
2
3
3 fr
         
         
         
         
X
X
2
4
1
7 fr
         
         
         
         
X
1
3
4
2
1
2 fr
         
         
         
         
X
X
1
3
4
2
3 fr
         
         
         
         
X
3
2
4
1
4 fr
         
         
         
         
X
4
3
1
2
X

12 fr
         
         
         
         
1
3
4
1
1
1
         
         
         
         
X
1
2
3
5 fr
         
         
         
         
1
3
4
2
1
1
2 fr
         
         
         
         
X
1
1
1
4
         
         
         
         
X
X
1
2
2 fr
         
         
         
         
3
2
1
1
1
4
7 fr
         
         
         
         
X
X
1
3
4
3

9 fr
         
         
         
         
X
4
3
1
2
1
12 fr
         
         
         
         
X
1
3
3
3
1
         
         
         
         
3
2
4
3 fr
         
         
         
         
1
3
4
2
1
1
         
         
         
         
2
1
3
4
3 fr
         
         
         
         
X
X
3
2
1
1
5 fr
         
         
         
         
X
X
1
3
4
3
7 fr
         
         
         
         
X
4
3
1
2
1

10 fr
         
         
         
         
X
1
2
3
4
X
10 fr
         
         
         
         
X
1
3
3
3
1
12 fr
         
         
         
         
3
2
1
1
1
4
         
         
         
         
X
1
3
4
2
1
7 fr
         
         
         
         
1
3
4
1
1
1
         
         
         
         
X
1
3
4
2
X
7 fr
         
         
         
         
X
X
3
1
1
1
9 fr
         
         
         
         
X
X
1
3
4
2
11 fr
         
         
         
         
X
4
3
1
2
X
         
         
         
         
2
3
1
4 fr
         
         
         
         
X
4
3
1
2
1
7 fr
         
         
         
         
X
1
4
4
4
X
2 fr
         
         
         
         
X
X
1
2
4
3
4 fr
         
         
         
         
4
3
1
2
1
7 fr
         
         
         
         
X
1
3
3
3
1

9 fr
         
         
         
         
4
3
1
1
1
X
9 fr
         
         
         
         
3
2
1
1
1
4
12 fr
         
         
         
         
1
3
4
2
1
1
4 fr
         
         
         
         
X

Am

variations
4 fr
         
         
         
         
1
3
4
1
1
1
6 fr
         
         
         
         
X
X
1
3
4
2
4 fr
         
         
         
         
X
X
3
1
1
1
         
         
         
         
4
2
1
X
X
X
8 fr
         
         
         
         
X
4
3
1
2
X
11 fr
         
         
         
         
X
1
3
4
2
1

Cm

variations
4 fr
         
         
         
         
X
1
3
4
2
1
9 fr
         
         
         
         
1
3
4
1
1
1
         
         
         
         
X
4
2
1
X
X
         
         
         
         
X
4
3
1
2
X
4 fr
         
         
         
         
X
1
X
X
2
1
11 fr
         
         
         
         
X
X
1
3
4
2

4 fr
         
         
         
         
X
X

Fm

variations
         
         
         
         
1
3
4
1
1
1
4 fr
         
         
         
         
X
X
1
3
4
2
         
         
         
         
X
X
3
1
1
1
9 fr
         
         
         
         
X
1
3
4
2
1
6 fr
         
         
         
         
X
4
3
1
2
X
         
         
         
         
X
3
2
1
3 fr
         
         
         
         
X
1
2
3
4
1
8 fr
         
         
         
         
1
3
4
2
1
1
3 fr
         
         
         
         
X
1
X
3
4
1
5 fr
         
         
         
         
3
2
1
1
1
4
10 fr
         
         
         
         
X
X
1
3
4
3

12 fr
         
         
         
         
X
4
3
1
2
1
3 fr
         
         
         
         
X

Cadd9

variations
         
         
         
         
X
2
1
3
X
         
         
         
         
X
3
1
         
         
         
         
X
2
3
8 fr
         
         
         
         
X
X
3
2
1
4
         
         
         
         
X
         
         
         
         
X
         
         
         
         
1
3
4
2
1
1
5 fr
         
         
         
         
X
4
3
1
2
1
3 fr
         
         
         
         
X
X
1
2
4
3
         
         
         
         
X
X
3
2
1
1
8 fr
         
         
         
         
X
1
3
3
3
1
10 fr
         
         
         
         
4
3
1
1
1
X

10 fr
         
         
         
         
3
2
1
1
1
4
         
         
         
         
X
X
2
3
1
5 fr
         
         
         
         
X
1
3
4
2
1
10 fr
         
         
         
         
X
X
1
1
1
5 fr
         
         
         
         
X
X
3
2
1
2 fr
         
         
         
         
X
4
3
1
2
X
10 fr
         
         
         
         
1
3
4
1
1
1

12 fr
         
         
         
         
X
X
1
3
4
2
         
         
         
         
1
3
4
1
1
1
         
         
         
         
X
X
3
1
1
1
3 fr
         
         
         
         
X
X
1
3
4
2
8 fr
         
         
         
         
X
1
3
4
2
1
5 fr
         
         
         
         
X
4
3
1
2
X
         
         
         
         
X
2
3
1
5 fr
         
         
         
         
1
3
4
1
1
1
5 fr
         
         
         
         
X
X
1
1
1
8 fr
         
         
         
         
X
3
2
4
1
2 fr
         
         
         
         
X
1
4
4
4
7 fr
         
         
         
         
X
1
3
4
2

9 fr
         
         
         
         
X
4
3
1
2
X
12 fr
         
         
         
         
X
1
3
4
2
1
5 fr
         
         
         
         
X

Dsus4

variations
         
         
         
         
X
X
1
3
4
2 fr
         
         
         
         
X
3
4
1
2
X
5 fr
         
         
         
         
X
1
3
3
4
1
5 fr
         
         
         
         
X
1
1
3
4
1
10 fr
         
         
         
         
1
3
3
3
1
1
10 fr
         
         
         
         
1
1
3
4
1
1

12 fr
         
         
         
         
X
X
1
3
4
4
         
         
         
         
3
4
2
1
3 fr
         
         
         
         
1
1
2
3
4
1
5 fr
         
         
         
         
X
X
1
1
1
4
3 fr
         
         
         
         
1
X
X
3
4
X
         
         
         
         
X
X
2
1
3
5 fr
         
         
         
         
X
1
3
1
4
1
5 fr
         
         
         
         
X
X
1
3
1
10 fr
         
         
         
         
1
3
1
2
1
1
5 fr
         
         
         
         
X
1
3
3
3
4
7 fr
         
         
         
         
4
3
1
1
1
2

10 fr
         
         
         
         
1
3
1
2
X
1
10 fr
         
         
         
         
1
3
1
2
4
1
12 fr
         
         
         
         
X
X
1
3
2
4

D7sus4

variations
         
         
         
         
X
X
2
1
3
5 fr
         
         
         
         
X
1
3
1
4
1
10 fr
         
         
         
         
1
2
1
3
X
1
         
         
         
         
3
2
1
3 fr
         
         
         
         
1
3
1
2
1
1
5 fr
         
         
         
         
X
X
1
3
2
4
         
         
         
         
1
X
2
4
3
X
3 fr
         
         
         
         
1
3
1
2
4
1
10 fr
         
         
         
         
X
1
3
3
3
4

10 fr
         
         
         
         
X
1
3
1
4
1
12 fr
         
         
         
         
4
3
1
1
1
2
         
         
         
         
2
7 fr
         
         
         
         
X
1
3
1
2
1
         
         
         
         
X
X
1
3
2
2
         
         
         
         
1
2
4
4
         
         
         
         
2
3
4
         
         
         
         
2
4

3 fr
         
         
         
         
X
3
2
1
5 fr
         
         
         
         
X
2
1
3
1
4
7 fr
         
         
         
         
X
1
3
1
2
X
7 fr
         
         
         
         
X
1
3
1
2
4
12 fr
         
         
         
         
1
3
1
1
4
1
3 fr
         
         
         
         
X
1
3
4
2
1
8 fr
         
         
         
         
1
3
4
1
1
1
         
         
         
         
X
3
1
X
X
         
         
         
         
X
4
1
2
X
8 fr
         
         
         
         
X
X
3
1
1
1
10 fr
         
         
         
         
X
X
1
3
4
2

12 fr
         
         
         
         
X
4
3
1
2
X
3 fr
         
         
         
         
X
1
3
1
4
1
8 fr
         
         
         
         
1
3
1
2
1
1
3 fr
         
         
         
         
X
1
X
1
4
1
3 fr
         
         
         
         
X
1
3
3
3
4
5 fr
         
         
         
         
4
3
1
1
1
2
8 fr
         
         
         
         
1
3
1
2
X
1

8 fr
         
         
         
         
1
3
1
2
4
1
10 fr
         
         
         
         
X
X
1
3
2
4

Gdim

variations
3 fr
         
         
         
         
1
3
4
2
X
X
5 fr
         
         
         
         
X
X
1
2
4
3
10 fr
         
         
         
         
X
1
2
4
3
X

B

variations
         
         
         
         
X
1
2
3
4
1
6 fr
         
         
         
         
1
3
4
2
1
1
         
         
         
         
X
1
4
4
4
X
         
         
         
         
X
1
X
3
4
1
3 fr
         
         
         
         
3
2
1
1
1
4
8 fr
         
         
         
         
X
X
1
3
4
3

10 fr
         
         
         
         
X
4
3
1
2
1
         
         
         
         
X
2
1
3
4
         
         
         
         
X
1
3
1
4
1
7 fr
         
         
         
         
1
3
1
2
1
1
7 fr
         
         
         
         
1
X
2
4
3
X
2 fr
         
         
         
         
X
1
3
3
3
4
4 fr
         
         
         
         
4
3
1
1
1
2

7 fr
         
         
         
         
1
3
1
2
X
1
7 fr
         
         
         
         
1
3
1
2
4
1
9 fr
         
         
         
         
X
X
1
3
2
4

Am/G

         
         
         
         
4
X
2
3
1
No chord
Standard guitar tuning:
E
A
D
G
B
E
Capo on 1 fret
|-3-3--3------3-3-3------3-3--3-----------6------8---|
|-3-3--3-6-5--3-3-3-6-5--3-3--3-6-5~------6------8---|
|-------------------------------------6h7----8h9-----|
|----------------------------------------------------|
|----------------------------------------------------|
|----------------------------------------------------|
|-3-3------3-3-3------3-3--3---------------------------|
|-3-3-6-5--3-3-3-6-5--3-3--3-6-5~----------------------|
|----------------------------------3-3-3---5-5-5-------|
|----------------------------------3-3-3---5-5-5--5----|
|----------------------------------1-1-1---3-3-3--5----|
|-------------------------------------------------3----|
G5Tell me that you want me babF5y G5 Tell me that it's trF5ue G5Say the magic words and I'd B5Destroy the C5world for yG5ou G5An army for the broken heartF5ed G5 Marching through theF5 streets G5And everything is burning B5To the grounC5d under youG5r feet DI wanna hold you BMy skies are turning blacEmk Feels like a heart attAack
|---------------|
|-5--3--2-2-2---|
|-4--2--2-2-2---|
|---------------|
|---------------|
|---------------|
GAnd I'd do anything you asAk I wanna hold you Dbad G5I'd melt the polar icecaps bF5aby G5 And watch them flood the F5earth G5I'd do anything to show you B5What your loC5ve is worthG5 G5So won't you show me yourF5 devotion G5 To heal my aching F5heart G5it's like a neutron bomb explosion B5Tearing C5me aparG5t DI wanna hold you BMy skies are turning blacEmk Feels like a heart attAack
|---------------|
|-5--3--2-2-2---|
|-4--2--2-2-2---|
|---------------|
|---------------|
|---------------|
GAnd I'd do anything you asAk I wanna hold you Dbad DAttention pleasBme, We interrupt this progEram With some disturbing Anews A worldwide evacuatiDon BmWe're GOING TO LOSEE And they've pulverised the natioBn GI guess it shows us just what love can dBo

Guitar solo

hold bend      release
|----------------------------/---------------------------------|
|---------------------------/----------------------------------|
|----3-5-5b7==---5b7==-5b7==-[5][5]--------5pbr7--5-5---3~~----|
|--5-----------------------------------------------------------|
|--------------------------------------------------------------|
|--------------------------------------------------------------|
|---------------------------------------------------|
|---------------------------------------------------|
|-------------------------------------3-3-3-5-5-5---|
|-------------------------3-3-3-5-5-5---------------|
|-------------3-3-3-5-5-5---------------------------|
|-3-3-3-6-6-6---------------------------------------|
|-------------3-3-3--6--6b==6.5---------------------|
|-3-3-3-6-6-6---------------------------------------|
|---------------------------------------------------|
|---------------------------------------------------|
|---------------------------------------------------|
|---------------------------------------------------|
|-13-----13-----13-----13-----13-----13-----13------|
|-13b15--13b15--13b15--13b15--13b15--13b15--13b15---|
|---------------------------------------------------|
|---------------------------------------------------|
|---------------------------------------------------|
|---------------------------------------------------|
|-13-----13-----------------------|
|-13b15--13b15------11--10--11----|
|-------------------12--12--12----|
|---------------------------------|
|---------------------------------|
|---------------------------------|
|----------15-----------------15-----------------15---------|
|-------15----18p15--------15----18p15--------15----18p15---|
|-17b19--------------17b19--------------17b19---------------|
|-----------------------------------------------------------|
|-----------------------------------------------------------|
|-----------------------------------------------------------|
|----------15-------18p15-----------------------------------|
|-------15----18p15-------18p15-18p15-18p15-18p15-----------|
|-17b19-------------------------------------------17p15-----|
|-------------------------------------------------------17\-|
|-----------------------------------------------------------|
|-----------------------------------------------------------|
DI wanna hold you BMy skies are turning blacEmk Feels like a heart attAack GAnd I'd do anything you asAk I wanna hold you Dbad, bad, bad GI'd do anything you asAk I wanna hold you Dbad 2. I’ve got you

Intro

  E   B      Am   A
|-----7-7-7--4-4--5-5---------|
|-----7-7-7--4-4--5-5---------|
|-9---8-8-8--4-4--6-6---------|
|-9---9-9-9--6-6--7-7---------|
|-7---------------------------|
|-----------------------------| (x3)
|-------------------------|
|-------------------------|
|-9-9---------------------|
|-9-9---------------------|
|-7-7------x\-------------|
|----------x\--pick-scrape|
|-----7-7-7--4-4--5-5---------|
|-----7-7-7--4-4--5-5---------|
|-9---8-8-8--4-4--6-6---------|
|-9---9-9-9--6-6--7-7---------|
|-7---------------------------|
|-----------------------------| (x4)

Verse

AThe world would be a lonely plEace
|-------------------------------|
|-7h9--9--9--7--7--7--5--5--5---|
|-8h9--9--9--8--8--8--6--6--6---|
|-------------------------------|
|-------------------------------|
|-------------------------------|
AWithout the one who puts
|-------------------|
|-------7--x-x------|
|--6s=8----x-x------|
|-------------------|
|-------------------|
|-------------------|
A sCmmile on your face
|-------------------------------------|
|-7h9--9---7h9--9--7--5---------------|
|-8h9--9---8h9--9--8--6---------------|
|-------------------------------------|
|-------------------------------------|
|-------------------------------------|
ASo hold me till the sun runs oCmut
|--------------------------------------------|
|----4-------7s=5-------7s=5--------4s=2--2--|
|--4-4--6s=8-------6s=8--------6s=4-------2--|
|--------------------------------------------|
|--------------------------------------------|
|--------------------------------------------|
AI won't be loFmnely when I'm doBwn
|---------------------------------------|
|------4------5--5s=7--9-9-9-9-9-9--7---|
|-2s=4---4s=6----6s=8--9-9-9-9-9-9--8---|
|---------------------------------------|
|---------------------------------------|
|---------------------------------------|

Chorus

Cause I've got EyouB Am ATo make me feel EstrBongAmer A When the dEays are roBugh And an Amhour seAems much ElonBgerAm A

Verse 2

AI never doubted you at aEll
|-------------------------------|
|-7h9--9--9--7--7-10--9--7--5---|
|-8h9--9--9--8--8--9--9--8--6---|
|-------------------------------|
|-------------------------------|
|-------------------------------|
AIf stars collide
|-------------------|
|-------7--x-x------|
|--6s=8----x-x------|
|-------------------|
|-------------------|
|-------------------|
Will you standCm by and watch them fall?
|-------------------------------------|
|-7h9--9---7h9--9--7--5---------------|
|-8h9--9---8h9--9--8--6---------------|
|-------------------------------------|
|-------------------------------------|
|-------------------------------------|
A                           Cm
So hold me till the sky is clear
|--------------------------------------------|
|----4-------7s=5-------7s=5--------4s=2--2--|
|--4-4--6s=8-------6s=8--------6s=4-------2--|
|--------------------------------------------|
|--------------------------------------------|
|--------------------------------------------|
A            Fm
And whisper words of love
|---------------------------------------|
|------4------5--5s=7--9-9-9-9-9-9--7---|
|-2s=4---4s=6----6s=8--9-9-9-9-9-9--8---|
|---------------------------------------|
|---------------------------------------|
|---------------------------------------|
BRight into my ear

Chorus

Cause I've got EyouB Am ATo make me feel EstrBongAmer A When the dEays are roBugh And an Amhour seAems much ElonBgerAm A Yeah, when I've got EyouB Am Oh, it'll mAake me feel EbetBterAm A When the Enights are lBong They'll beAm easiAer EtogBethAmer A

Bridge

BmLooking in your eyEes
|----------------------|
|-15---14~-15----------|
|-------------13-------|
|-----------------14---|
|----------------------|
|----------------------|
BmHoping they won't cGry
|--------------------|
|-12-15--14--12------|
|----------------12--|
|--------------------|
|--------------------|
|--------------------|
EmEven if they dAo FmI'll be in bed so clGose tAo yoDu To hold you through the niGght EmYou'll be unawAare But Fmif you need me
G    A
I'll be there
|---------------------------------------|
|---------------------------------------|
|-4-4-4-4--4s6-6-6--6s8--8-8--x-x-x-----|
|-x-x-x-x--x-x-x-x--x-x--x-x--x-x-x-----|
|-2-2-2-2--2s4-4-4--4s6--6-6--x-x-x-----|
|---------------------------------------|
|-----7-7-7--4-4--5-5---------|
|-----7-7-7--4-4--5-5---------|
|-9---8-8-8--4-4--6-6---------|
|-9---9-9-9--6-6--7-7---------|
|-7---------------------------|
|-----------------------------| (x3)
|--------------------|
|--------------------|
|-9------------------|
|-9------------------|
|-7--------x\--------|
|----------x\--------|

Chorus

Yeah, I've got EyouB Am AOh, to make me fEeelB stAmrongeAr When the dEays are roBugh And an Amhour seAems much ElonBger AmYeah, when I've got EyouB Am It'll mAake me feel EbetBterAm A When the Enights are lBong They'll beAm easiAer EtogBethAmer A
|-x-x-x-x---|
|-x-x-x-x---|
|-x-x-x-x---|
|-x-x-x-x---|
|-x-x-x-x---|
|-x-x-x-x---|
|-12-12-12-11-11-11-14-14-14-11-11-11-12-12-11-11--|
|-12-12-12-12-12-12-12-12-12-12-12-12-12-12-12-12--|
|--------------------------------------------------|
|--------------------------------------------------|
|--------------------------------------------------|
|--------------------------------------------------| (x4)
Yeah, when I've got you
|-----7---4---5--------------------|
|-----7---4---5--------------------|
|-9---8---4---6--------------------|
|-9---9---6---7--------------------|
|-7--------------------------------|
|----------------------------------|
3. obviously CRecently iCadd9ve been, C Cadd9 hoCpelessly rCadd9eaching, C Cadd9 Gout for this girl, whos ouFtta this world, belCieve meCadd9. C Cadd9 CShe's got a Cadd9boyfriend,C Cadd9 he drCives me rounCadd9d the bendC, Cadd9 Cos hGes 23, he's Fin the marines, he'd Ckill mCadd9e. C Cadd9 FSo many nigChts now,F i find myself thinCking about hDmer now. G

Chorus

Cos ObviCously, she's outta my leEague But how can i wFin she keeps dragging meD in, and i know i Fnever will be goGod enough for hCer, no Eno. Fnever will be gFmood enough for hCer Cadd9 C Cadd9 CGotta escCadd9ape now, C Cadd9 gCet on a pCadd9lane now, oCoo yeaCadd9h GOff to L.A. and thFats where i'll stay for 2C yearCadd9s C Cadd9 FPut it behinCd me,F and go to a plCace where she cant fiDmnd me. G

Chorus

Cos ObviouCsly, shes outta my leEague I'm wasting my tFime cos she'll never be miDne and i no i Fnever will be goGod enough for hCer, no nEo. Fnever will be goFmod enough for hCer. E EShe's outta my haFnds, and i'll neCver know where i sAmtand, cos im nDot, goFmod enough for hCer.

G C

Good

CEnough, enouFgh enough for hCer. G(Good enough for hFer) Good enough for hCer. Cos ObvCiously, shes outta my leEague I'm wasting my tFime cos she'll never be miDne and i know i FNever will be goGod enough for hCer. Cos ObvCiously, shes outta my leEague But how can i wFin she keeps dragging me iDn and i know i FNever will be gGood enough for hCer. Cos ObvCiously, shes outta my leaEgue I'm wasting my tFime cos she'll never be mDine and i know i FNever will be goGod enough for hCer, no nEo. FNever will be goFmod enough for hCer. 4. Ultraviolet
Nothing goes to plan,
e|--------2----------------------2-------|
B|------1—--1---1--------------1---1---1-|
G|----2-------2--------------2-------2---|
D|--0----------------------0-------------|
A|---------------------------------------|
E|---------------------------------------|
It’s all a game of chance they in,
e|-------3------------------3--------|
B|-----1---1---1----------1---1---1--|
G|---2-------2----------2-------2----|
D|-0------------------0--------------|
A|-----------------------------------|
E|-----------------------------------|
Won--der--land
e|--------2----------------3----------2-|
B|------1—--1---1--------1---1---1----3-|
G|----2-------2--------2-------2------2-|
D|--0----------------0----------------0-|
A|--------------------------------------|
E|--------------------------------------|
There's magic in the air,
e|--------2----------------------2-------|
B|------1—--1---1--------------1---1---1-|
G|----2-------2--------------2-------2---|
D|--0----------------------0-------------|
A|---------------------------------------|
E|---------------------------------------|
A tragic love affair that I don't
e|-------3------------------3--------|
B|-----1---1---1----------1---1---1--|
G|---2-------2----------2-------2----|
D|-0------------------0--------------|
A|-----------------------------------|
E|-----------------------------------|
              D
Un—-der—stand
e|--------2----------------3----------2-|
B|------1—--1---1--------1---1---1----3-|
G|----2-------2--------2-------2------2-|
D|--0----------------0----------------0-|
A|--------------------------------------|
E|--------------------------------------|

Chorus

GThese summer girlsA are really, Dsome-Athing Bmelse. EmOur lives are sAhort, the nights are loDng Dsus4

Verse 2

DAnd missus HalloweenG Dis drinkin at the bar again inG DNew Orleans C/G GShe throws another dart C Gand narrowly avoids my lonelCy DBroken heart, D7Torn apD7sus4art.

Chorus

GThese summer girls aAre really, Dsome-tAhing eBmlse EmOur lives are shAort, the nights are loDng The Cnights go G7on and Don_____ The Cnights go G7on and Don_____ C G7 D G < arp this G The nights go on and on._____ Kinda Middle 8 part: Bm So pinch me i must be dreaming D My life has lost all its meaning. G But I like the waBmy I'm feeling nEowD __E__D___E__. Bm Kissing your lips at midnight D Under the stars and moonlight G But I never thoughtA we'd be this wroDng CThe nights go G7on and oDn_____, CThe nights go G7on and oDn_____, CThe nights go G7on and oD7n______D7sus4. D7 D7sus4

Verse 3

DShe's looking good tonightG, DI love the way she glows in ul-Gtra-Dviolet light. C/G GIntoxicate my mind, C GI know that love is blind and I'm nCot sDeeing right, D7Not al-D7sus4right___.

Chorus

GThese summer girls aAre really, SDome-tAhing eBmlse. EmOur lives are sAhort, the nights are long GThese summer girls aAre really, Dsome-tAhing eBmlse. EmOur lives are sAhort, the nights are loDng. CThe nights go G7on and Don_____ CThe nights go G7on and Don_____ C G7 D G < arp this G The nights go on and on_____ Then D7 & D7sus4 repeated till the end. 5. Five colours in her hair
e|------------------------------------------------------------------|
B|------------------------------------------------------------------|
G|------------------------------------------------------------------|
D|---------------------3-4-5-5-3-5-3-------------3-4-5-5-3-5-3------|
A|---------1-2-3-1-3-5---------------5-4-3-1-3-5--------------------|
E|-3-1-3-3----------------------------------------------------------|
e|-----------------|
B|-----------------|
G|-----------------|
D|-----------------|

A|-5-4-3-1-3-1-3-4-|

E|-----------------|
GDo do do do Cdo - do, DGo do do do dCo - do, GDo do do do Cdo, - do DDoooo ShGe's got a lip ring with 5 cFolours in her hGair NoGt into fashion but I loFve the clothes she weDars HerG tattoos always hidden byF her under weGar but you don't CcarDe EGverybody wBmants to know her Cnae - ae - aDe - ame I Ghad a house pBmarty and she cCae - ae - aDe - ame EveCryone asked mDe whBmo the hell is sEmhe, weirCdo with 5 coDlours in her haGir ShGe's just a loner with a Fsexy attituGde IG'd like to phone her cause she pFuts me in the moDod TheG rumours spreading round that sFhe cooks in the nuGde but you don't cCare, she don't cDare EvGerybody waBmnts to know her nCae - ae - aDe - ame HoGw does she cBmope with her new found Cfae - ae - Dae - ame EveCryone asked Dme whBmo the hell is sEmhe That Cweirdo with 5 cDolours in her haGir

Bridge

ShEme was all I thouAmght about The girl I couldn't lFive without But thD7en she went insaGne, she cDouldn't take the fGame She Dsaid I wCas to bGlame, sChe had had enoDugh, and sEmhaved 5 colours oGff aDnd nCow She's just a wCeirdo with no nGame
e|------------------------------------------------------------------|
B|------------------------------------------------------------------|
G|------------------------------------------------------------------|
D|---------------------3-4-5-5-3-5-3-------------3-4-5-5-3-5-3------|
A|---------1-2-3-1-3-5---------------5-4-3-1-3-5--------------------|
E|-3-1-3-3----------------------------------------------------------|
e|-----------------|
B|-----------------|
G|-----------------|
D|-----------------|

A|-5-4-3-1-3-1-3-4-|

E|-----------------|
GEverybody Bmwants to know herC nae - ae - Dae - ame I Ghad a house pBmarty and she cCae - ae - aDe - ame EveCryone asked mDe whBmo the hell is sEmhe, weirCdo with 5 coDlours in her haGir GDo do do do Cdo - do, DGo do do do dCo - do, GDo do do do Cdo, - do DDoooo 6. too close for comfort

Intro

G D Em7 C Cm x2

Em

EmNever meant the things i said to make you cry Can I say I'm soCrry? It's hard to forDget Yes I reCgret All these mGistakes EmI don't know why you're leaving me But I know you must have your rCeasons There's tears in your eDyes I watch as you cCry But it's getting lGate Was I iCnvading iDn on your Emsecrets? Was I too close for cComfort? You're pushing me Dout when i wanted iGn What was I jCust abDout to disEmcover? When I got too close for cComfort in driving you hGome D Guess ill never Emknow EmThe way we scratched our names into the sand And told me you loved Cme And now that I fDind That you've changed your mCind I'm lost for worGds EmAnd everything I feel for you I wrote down on one piece of pCaper The one in your hDand You won't understCand How much it hGurts to let you go Was I inCvading iDn on your Emsecrets? Was I too close for Ccomfort? Your pushing me out when i wanted Gin What was i Cjust aDbout to disEmcover When I got too close for comCfort in driving you Ghome D Cos I'll never Emknow EmAll this time you've been telling me lCies Hidden in bags that are under your Deyes And when I asked you I knew I was Emright but if you turn your back on me Cnow When I need you most But you just let me doDwn, dCown, Cmdown. Won't you think Emabout what your about to do to Cme And back Cmdown G Was I inCvading iDn on your seEmcrets? Was I too close for cComfort? Your pushing me Dout when i wanted Gin What was I jCust aDbout to disEmcover? C D I got too close for Ccomfort Pushing me Dout when I wanted Gin GYeah, yeah, yeah What was I jCust aDbout to disEmcover? When I got too close for Ccomfort Driving you Dhome Guess I'll never Gknow

Outro

G D Em7 C Cm x2

Em

7. all about you Cit's all aAmbout you, iFt's all abGout you baby. Cit's all aAmbout you, iFt's all abGout you. Cyesterday you aEsked me something i thAmought you knCew so i Ftold you with a Gsmile it's all abouCt you Cthen you whispered iEn my ear and toAmld me toC said you Fmade my life worth whGile it's all aboutC youC7 and Fi would answer alFml your wishes if Cyou ask me tAmo but ifF you deny me oD7ne of your kisses doGn't know what i do so hCold me close and sEay three words like yAmou used to dCo dancing Fon the kitchen tGiles it's all abouCt you yeah
e|----------------------------------------------------------------------------|
B|----------------------------------------------------------------------------|
G|-------6--8---10--10--10--10------------------------------------------------|
D|---/8---------------------------11h10---8--10-------------------------------|
A|-------------------------------------------------11/13---13--6--4---6-4—0(1)|
E|----------------------------------------------------------------------------|
e|-------------------------11/13--13--13---13--11--9-8--9---11---9------------|
B|-6---9---6---9/11----14-----------------------------------------------------|
G|----------------------------------------------------------------------------|
D|----------------------------------------------------------------------------|
A|----------------------------------------------------------------------------|
E|----------------------------------------------------------------------------|
e|--9--8---6---8--------------------------------------------------------------|
B|----------------9--6--------------------------------------------------------|
G|-----------------------8--6--8--6-------------------------------------------|
D|----------------------------------------------------------------------------|
A|----------------------------------------------------------------------------|
E|----------------------------------------------------------------------------|
and Fi would answer alFml your wishes if Cyou ask me tAmo but ifF you deny me oD7ne of your kisses doGn't know what i do so hCold me close and sEay three words like yAmou used to dCo dancing Fon the kitchen tGiles yeah you Fmake my life worth whGile so i tFold you with the sGmile it's all abouCt you yeah Cit's all aAmbout yoFu, it's alGl about you baby Cit's all aAmbout yoFu, it's alGl about you baby 8. that girl
|--7--6--4--------------------------------------------|
|-----------7--4--------------------------------------|
|-----------------7--6--4-----------------------------|
|--------------------------6--------------------------|
|-----------------------------------------------------|
|-----------------------------------------------------|
GWent out with the guys Cadd9And before my eyes GThere was this girl She looked so fDine GWe spoke for hours Cadd9Took off my trousers GSpent the day laughing in the sDun And we had fGun And my friends they all looked sCadd9tunned yeah, yeah GDude she's amazing And I caDn't believe you got that giGrl And my friends said (ShGe's amazing, I can't believe...) It gave me more street Cadd9cred I dug the book she reGad And how could I forDget She rocks my woGrld More than any other Cadd9girl yeah, yeah GDude she's amazing and I caDn't believe you got that Cadd9girl And I caDn't believe you got the girl BmShe looked increCdible Just turned seveBmnteen I guess my friCends are right She's out of my leEmague So what am I to dDo She's too good to be trCue 9. unsaid things GThis girl that moved just down the rBoad from me EmShe had the nicest legs i've eCver seen Dback then Gshe wrote me letters just to sBay she loved me Emnow her face is just a memCory D now that Amseven years have gone and i've grown Fup but she's moved on somehow i'm stD7ill holding on to heGr Gdim CI still got so mEany unsaid tFhings that i wanna say and i just cD7an't wait another day i wish she knGew Gdim Ci still wait up wEondering if sFhe still remembers me but there's no wD7ay for me to knoGw C Now she's got pregnant with a baby it feels like shes slipping away from me now that she's getting married i'm in misery coz her fiance's so much bigger than me coz Amhe works out alot and there's not Fmuch that he ain't got and right now i'mD7 losing the plot along with herG Gdim

G Em F D7 G C

And i want her to know before she's married and has a baby that i need her

Solo

e|-----------------------------------------------------|
B|-0-1-3-1-0-1---0-1-3-1-0-1---0-1-5-3-1---3---0-1-3-4-|
G|-------------2-------------2-----------2---2---------|
D|-----------------------------------------------------|
A|-----------------------------------------------------|
E|-----------------------------------------------------|
CI still got so mEany unsaid tFhings that i wanna say and i just cD7an't wait another day i wish she knGew Gdim Ci still wait up wEondering if sFhe still remembers me but there's no wD7ay for me to knoGw C 10. ill be ok

Intro

e|--15-14---------------------------------------------------|
B|--------15-------15-------15-------15-------15------------|
G|-----------14-12----14-12----14-12----14-12----14---------|
D|----------------------------------------------------------|
A|----------------------------------------------------------|
E|----------------------------------------------------------| x4
e|--0---0---0---0---0-0---0--|
B|--1---1---1---1---1-1---1--|
G|--0---0---0---0---0-0---0--|
D|--2---0---2---0---2-0---2--|  x2
A|--3---3---3---3---3-3---3--|
E|--X---X---X---X---X-X---X--|
CWhen everything is going wrong And thinAmgs are just a little strange Its been Emso long now you've Fforgotten how to smile C CAnd overhead the skies are clear but itAm still seems to rain on you And Emyour only friends all have betFter things to do C When you're dowFn and loGst And you neeEmd a helping hAmand When you're dowFn and lGost along the wCay Oh just tell yourself BAhhhh ahhh ahhFh ahh, I'll be Cok CWhen things are only getting worse AmAnd you need someone to take the blame When yourEm lover's gone there's nFo one to share the pain C
e|--0-----------------|
B|--1--5--3---5--3----|
G|--0-------0------0--|
D|--2-----------------|
A|--3-----------------|
E|--X-----------------|
CYou're sleeping with the tv on and you're lyAming in an empty bed EmAll the alcohol in the Fworld would never Chelp me through it again When you're dFown and lGost And you Emneed a helping haAmnd When you're Fdown and Glost along the waCy Just try a little haFrder ETry your best to mAmake it thCrough the Dday Oh just tell yourself BAhhhh ahhh ahhFh ahh, I'll be Cok

Bridge

second guitar plays: long lasting notes played in sequence with chords
e|----------------------|
B|----------------------|
G|----------------------|
D|----------------------|
A|-----3--5--7--8--10---|
E|--6-------------------|
BYou're not alone B [You're not alone] BYou're not alone B [You're not alone] BYou're not alone B C
e|--0---0---0---0---0-0---|
B|--1---1---1---1---1-1---|
G|--0---0---0---0---0-0---|
D|--2---0---2---0---2-0---|  x2
A|--3---3---3---3---3-3---|
E|--X---X---X---X---X-X---|
Just tell yourself I'll, I'll be ok Oh just tell yourself, I'll, I'll be ok Won't you tell yourself, Bahhhhhh Fahhh Cahhh Gahhh When you're Fdown and Glost And you nEmeed a helping haAmnd When you're dFown and lGost along the Cway Try a little hFarder ETry your best to Ammake it tChrough the Dday And oh just tell yourself BAhhhh ahhh ahhFh ahh, I'll be Cok BAhhhh ahhh ahhFh ahh, I'll be Cok BAhhhh ahhh ahhFh ahh, I'll be Cok 11. just my luck

Intro chords

G [G/f#] Em7 D Cadd9 D G [G/f#] Em7 D Cadd9 D G

Intro riff

|-----------------------------------------------------|
|-15------12------10------8------8--7--8-10-----------|
|----14~-----12~-----11~----9~------------------------|
|-----------------------------------------------------|
|-----------------------------------------------------|
|-----------------------------------------------------|
|-----------------------------------------------------|
|-15------12------10------8------8--7--8-10--8~-------|
|----14~-----12~-----11~----9~------------------------|
|-----------------------------------------------------|
|-----------------------------------------------------|
|-----------------------------------------------------|

Verse

GYou and BmI have gCot a lot in Dcommon GWe sBmhare aCll the same pDroblems EmLuck and love and lAife aren't on our Dsus4side D
|-15-15-15-15-15-15-15-15-15-15-14-14-12-12-14-14---|
|-15-15-15-15-15-15-15-15-15-15-15-15-15-15-15-15---|
|---------------------------------------------------|
|---------------------------------------------------|
|---------------------------------------------------|
|---------------------------------------------------|
|-15-15-15-15-15-15-15-15-15-15-14-14-12-12-14-14-12--|
|-15-15-15-15-15-15-15-15-15-15-15-15-15-15-15-15-15--|
|-----------------------------------------------------|
|-----------------------------------------------------|
|-----------------------------------------------------|
|-----------------------------------------------------|
GI'm Bmin the wrCong place at the wrDong time GAlwaBmys the lCast one in a lDong line EmWaiting for sAomething to turn out Dsus4right,D rDighBt

Chorus

Cadd9 D G [G/f#] Em I'm starting to fall in love
|-----------------------------|
|-----------------1--0--------|
|-0---------------------2--0--|
|----4--2~----1---------------|
|-----------------------------|
|-----------------------------|
Cadd9It's geDtting too muBch Cadd9 D G [G/f#] Em Not often that I slip up
|-------------|
|-------------|
|-0-----------|
|----4--2~----|
|-------------|
|-------------|
Cadd9It's juDst my luGck
|-----------------------------------------------------|
|-15------12------10------8------8--7--8-10--8~-------|
|----14~-----12~-----11~----9~------------------------|
|-----------------------------------------------------|
|-----------------------------------------------------|
|-----------------------------------------------------|

Verse 2

GRain Bmclouds are Cgathering in nDumbers GJust Bmwhen I pCut away my jDumper EmLuck and love sAtill aren't on my Dsus4side D
|-15-15-15-15-15-15-15-15-15-15-14-14-12-12-14-14---|
|-15-15-15-15-15-15-15-15-15-15-15-15-15-15-15-15---|
|---------------------------------------------------|
|---------------------------------------------------|
|---------------------------------------------------|
|---------------------------------------------------|
|-15-15-15-15-15-15-15-15-15-15-14-14-12-12-14-14-12--|
|-15-15-15-15-15-15-15-15-15-15-15-15-15-15-15-15-15--|
|-----------------------------------------------------|
|-----------------------------------------------------|
|-----------------------------------------------------|
|-----------------------------------------------------|
GI Bmstill rCefuse to be a Dskeptic GCause I kBmnow CI could still cDorrect this EmMaybe this wAill be my lucky Dsus4night,D niDghtB

Chorus

Cadd9 D G [G/f#] Em I'm starting to fall in love Cadd9It's gDetting too mBuch Cadd9 D G [G/f#] Em It's not often that I slip up Cadd9It's jDust my lGuck Cadd9 G D

Interlude

GJust my luck, Cadd9just my luck, Gjust my luck, Dnow (x4) Something to turn out right Waiting for something I'm waiting for something To turn out right

Guitar solo

|---------------12-12-------12-12-------12-12---------------0-------------------|
|---------------12-12-------12-12-------12-12---------------0-------------------|
|---------14b16-------14b16-------14b16-------14b16r-12~----0-----------12-14---|
|-------------------------------------------------------------12-12h=14---------|
|-------------------------------------------------------------------------------|
|-3s=15\------------------------------------------------------------------------|
|--------------------------8-9-10-10b12---------------------------------|
|------------------0-10b12--------------10pb11-8~--10-------------------|
|-14b16r-12-11~---------------------------------------9~----------------|
|-----------------------------------------------------------------------|
|-----------------------------------------------------------------------|
|-----------------------------------------------------------------------|
|-3s8-8-7-7-8-8-7--7s=14-14-14-14-14-14-14-14-14s15--15-15-15-----------|
|-3s8-8-8-8-8-8-8-------------------------------------------------------|
|-----------------------------------------------------------------------|
|-----------------------------------------------------------------------|
|-----------------------------------------------------------------------|
|-----------------------------------------------------------------------|

Chorus

Cadd9 D G [G/f#] Em I'm starting to fall in love Cadd9It's gDetting too mBuch Cadd9 D G [G/f#] Em Not often that I slip up Cadd9It's jDust my lGuck
|-----------------------------------------------------|
|-15------12------10------8------8--7--8-10-----------|
|----14~-----12~-----11~----9~------------------------|
|-----------------------------------------------------|
|-----------------------------------------------------|
|-----------------------------------------------------|
It's just my luck
|-----------------------------------------------------|
|-15------12------10------8------8--7--8-10\----------|
|----14~-----12~-----11~----9~------------------------|
|-----------------------------------------------------|
|-----------------------------------------------------|
|-----------------------------------------------------|

Outro

Luck...

Em D A Cadd9

|-0----2-2-2--0---------3------| |-0----3-3-3--2---------3------| |-0----2-2-2--2---------0------| |-2----0-0-0--2---------2------| |-2-----------0---0--2--3------| |-0----------------------------|
12. memory lane
  G              D             Em7    B7   Cadd9          G    Am G
|-----------------------------------------------------------------|
|-----------------------------------------------------------------|
|-------------------2b3rp0--------------------------0h2p0---------|
|---------0h2p0--0---------2p0------------------0h2---------------|
|-----0h2---------------------------------------------------------|
|-----------------------------------------------------------------|
   D
|----------------------|
|-----3----------------|
|-2s4---2p0-2p0--------|
|---------------2p0----|
|----------------------|
|----------------------|

Verse

GTwo years awDay Em7I got back toB7day Cadd9Tried calling upG this girl I uAm/Gsed to know D GBut when I said heDllo Em7She didn't knB7ow Cadd9Just who the hGell I was supAm/Gposed to be D
|----------------------|
|-----3----------------|
|-2s4---2p0-2p0--------|
|---------------2p0----|
|----------------------|
|----------------------|

Chorus

Cadd9Memory laGne Em7We're here again DBack to the dCadd9ays G Em7And I'll remember yDou alwaCadd9ys G Em7So much has chAangeEm7d Now it feCadd9els like yesterdaDy I went away

Verse 2

GThe words aroDund Em7That she moved tB7own Cadd9About a thouGsand miles aAm/Gway from here D And I foGund something she wrDote Em7A long time aB7go Cadd9And it remiGnds me of a plAm/Gace I know called D

Chorus

Cadd9Memory laGne Em7We're here again DBack to the dCadd9ays G Em7And I'll remember yoDu alwaysCadd9 G Em7So much has cAhangEm7ed Now it feCadd9els like yesterdaDy I went away GSo much has chaCadd9nged (so much has changed) So much has chaGnged (so much has changed) So much has chaAm/Gnged (so much has chCmanged) Down memory lCadd9ane G Em7We're here again DBack to the dCadd9ays G Em7And I'll remember yDou alwaCadd9ys G Em7So much has cAhangEm7ed Now it fCadd9eels like yesterdayD I went away GSo much has chaCadd9nged (so much has changed) So much has chaGnged (so much has changed) So much has chaAm/Gnged (so much has chaCmnged) Down memory laGne So much has chaCadd9nged (so much has changed) So much has chaGnged (so much has changed)