McFly - No Worries Chords

 
         
         
         
         
3
2
4
3 fr
         
         
         
         
1
3
4
2
1
1
         
         
         
         
2
1
3
4
3 fr
         
         
         
         
X
X
3
2
1
1
5 fr
         
         
         
         
X
X
1
3
4
3
7 fr
         
         
         
         
X
4
3
1
2
1

10 fr
         
         
         
         
X
1
2
3
4
X
10 fr
         
         
         
         
X
1
3
3
3
1
12 fr
         
         
         
         
3
2
1
1
1
4
         
         
         
         
X
X
1
3
2
2 fr
         
         
         
         
X
4
3
1
2
1
5 fr
         
         
         
         
X
1
2
3
4
1
5 fr
         
         
         
         
X
1
4
4
4
X
7 fr
         
         
         
         
4
3
1
1
1
X
7 fr
         
         
         
         
3
2
1
1
1
4

10 fr
         
         
         
         
1
3
4
2
1
1
12 fr
         
         
         
         
X
X
1
3
4
3
5 fr
         
         
         
         
X
X
         
         
         
         
X
3
2
1
3 fr
         
         
         
         
X
1
2
3
4
1
8 fr
         
         
         
         
1
3
4
2
1
1
3 fr
         
         
         
         
X
1
X
3
4
1
5 fr
         
         
         
         
3
2
1
1
1
4
10 fr
         
         
         
         
X
X
1
3
4
3

12 fr
         
         
         
         
X
4
3
1
2
1
3 fr
         
         
         
         
X
         
         
         
         
2
3
3 fr
         
         
         
         
X
X
2
4
1
7 fr
         
         
         
         
X
1
3
4
2
1
2 fr
         
         
         
         
X
X
1
3
4
2
3 fr
         
         
         
         
X
3
2
4
1
4 fr
         
         
         
         
X
4
3
1
2
X

12 fr
         
         
         
         
1
3
4
1
1
1
         
         
         
         
X
1
3
4
2
1
7 fr
         
         
         
         
1
3
4
1
1
1
         
         
         
         
X
1
3
4
2
X
7 fr
         
         
         
         
X
X
3
1
1
1
9 fr
         
         
         
         
X
X
1
3
4
2
11 fr
         
         
         
         
X
4
3
1
2
X
         
         
         
         
X
1
2
3
5 fr
         
         
         
         
1
3
4
2
1
1
2 fr
         
         
         
         
X
1
1
1
4
         
         
         
         
X
X
1
2
2 fr
         
         
         
         
3
2
1
1
1
4
7 fr
         
         
         
         
X
X
1
3
4
3

9 fr
         
         
         
         
X
4
3
1
2
1
12 fr
         
         
         
         
X
1
3
3
3
1
3 fr
         
         
         
         
X
1
3
4
2
1
8 fr
         
         
         
         
1
3
4
1
1
1
         
         
         
         
X
3
1
X
X
         
         
         
         
X
4
1
2
X
8 fr
         
         
         
         
X
X
3
1
1
1
10 fr
         
         
         
         
X
X
1
3
4
2

12 fr
         
         
         
         
X
4
3
1
2
X
No chord
Standard guitar tuning:
E
A
D
G
B
E
Capo on 3 fret

Intro

G D C D Em D C D

|-10h11-10-----------------------------------13-----------|
|----------11----11s13-11-10----10-11--13b15----13pb15-11-|
|-------------10-------------12---------------------------|
|---------------------------------------------------------|
|---------------------------------------------------------|
|---------------------------------------------------------|
|-13--11-10---------------10h11-11s13--11-10--------------|
|-----------11s13---11h13--------------------13---11h13---|
|---------------------------------------------------------|
|---------------------------------------------------------|
|---------------------------------------------------------|
|---------------------------------------------------------|
|-10h11-10-----------------------------------13-------13-----------|
|----------11----11s13-11-10----10-11--13b15----13b15----13b15r-11-|
|-------------10-------------12------------------------------------|
|------------------------------------------------------------------|
|------------------------------------------------------------------|
|------------------------------------------------------------------|
GWe ran past strawberry fields and Bmsmelt the summertime EmWhen it gets dark I'll hold your Cbody close to Dmine GAnd then we'll find some wood and Bmhell we'll build a fire EmAnd then we'll find some rope and Cmake a swinging Dtire CCaptivated by the way you Dlook GTonight the lDight is daEmncing iDn your eAyes Your sweet eyCes D Times like these we'll neGver foDrget Staying out to waCtch the suDnset EmI'm glad I shDared this with yCou D Cause yGou set me frDee Showed me how good Cmy life could Dbe EmHow did this haDppen to mCme CmYeah, aww GAnd then I'll swing you girl uBmntil you fall asleep EmWhen you wake up you'll be lyCing next to mDe GWe'll go to Hollywood, make Bmyou a movie star EmI want the world to know how beaCutiful you aDre CCaptivated by the way you Dlook GTonight the lDight is daEmncing iDn your eAyes Your sweet eyCes D Times like these we'll neGver foDrget Staying out to waCtch the suDnset EmI'm glad I shDared this with yCou D Cause yGou set me frDee Showed me how good Cmy life could Dbe EmHow did you hapDpen to meCm CmYeah, aww GThere aDre no seEmcrets tDo be toAld CNothing you doDn't already knGow

G Em

Bum Bum Bum

EmWe've got no fears of growing Aold CWe've got no worDries in the world

G

Ba Ba Ba Da Ba Ba Da

C A D

Ba Ba Ba Da Ba Ba Da Baa Ba Da Ba

GEnding - Drum Roll EndGing Chords: