The Mighty Boosh - Ceruvial Brooks Chords

 
No chord
Standard guitar tuning:
E
A
D
G
B
E
No capo
These notes are played during the introduction of the character.
e|--------------------------------------------------------------------------|
B|------5--5---5----5---1----6----------------------------------------------|
G|-----5--5---5----5---1----6----5----5-------------------------------------|
D|----7--7---5----5---3----8----7----7--------------------------------------|
A|---7--7---7----5---3----8----7---7----------------------------------------|
E|--5--5---8----7---1----6----5---5-----------------------------------------|
Repeat these chords and the entire ‘measure’ as needed
e|--------------------------------------------------------------------------|
B|--------------------------------------------------------------------------|
G|--5--5555----------5-555--------5-555--------1-111---------6-666----------|
D|--7--7777----------5-555--------5-555--------3-333---------8-888----------|
A|--7--7777--------7-7-777------5-5-555------3-3-333-------8-8-888----------|
E|--5--5555----8-----8-888---7----7-777---1----1-111----6----6-666----------|
These are the higher noted chords at “A seagull screamed”
e|--------------------------------------------------------------------------|
B|--------------------------------------------------------------------------|
G|--------------------8---8888-----8----8888------------6-6666---5-5555-----|
D|--6-6666--6-666-----8---8888-----8----8888------------8-8888---7-7777-----|
A|--8-8888--8-888----10--10101010--10--10101010---------8-8888---7-7777-----|
E|--9-9999--9-999----11--11101010--10--10101010---------6-6666---5-5555-----|
“Are we to be”...
e|--------------------------------------------------------------------------|
B|--------------------------------------------------------------------------|
G|-----------5-555--------5-555--------1-111---------6-666------------------|
D|-----------5-555--------5-555--------3-333---------8-888------------------|
A|---------7-7-777------5-5-555------3-3-333-------8-8-888------------------|
E|-----8-----8-888---7----7-777---1----1-111----6----6-666------------------|
chord drop at “always be this way”... *play in the same rhythmic pattern*    “will I ever love”...
e|--------------------------------------------------------------------------|
B|--------------------------------------------------------------------------|
G|-----3-----6---------5---1----------------5-------------------------------|
D|-----5-----8---------7---3----------------7-------------------------------|
A|-----5-----8---------7---3----------------7-------------------------------|
E|-----3-----6---------5---1----------------5-------------------------------|
Go back to repeating the normal chords as needed, until:
 ...”into my woods”...  “tiny little eyes”...   how I loved you and oh...
e|--------------------------------------------------------------------------|
B|--------------------------------------------------------------------------|
G|---8--7-------------5-----------------------3-----------------------5-----|
D|--10--9-------------7-----------------------5------------3----------7-----|
A|--10--9-------------7-----------------------5------------3----------7-----|
E|---8--7-------------5-----------------------3------------0----------5-----|
Are we to be/married/on the morrow/my child.....(pause)
e|--------------------------------------------------------------------------|
B|------5--5---5----5---1----6----------------------------------------------|
G|-----5--5---5----5---1----6----5----5-------------------------------------|
D|----7--7---5----5---3----8----7----7--------------------------------------|
A|---7--7---7----5---3----8----7---7----------------------------------------|
E|--5--5---8----7---1----6----5---5-----------------------------------------|
Or am I to remain here...in this dusty old wood?
e|---------------------------------------------------------------0----------|
B|----------------------------------------------------------------4---------|
G|-----------------------------------------------------------------4--------|
D|------------------------------------------------------------------2-------|
A|-------------------------------------------------------------------0------|
E|--------------------------------------------------------------------------|