Misc. Computer Games - Final Fantasy 3 Theme Chords

 
No chord
Standard guitar tuning:
E
A
D
G
B
E
No capo

Intro

---------15~----------------------15~--------------
-11--14--------14--11--9--11--14-------------------
That's all I have of that so far, someone help me out on it. Here's the main part which should be 2 guitars, the first I tabbed to the voice of Maria and the background
it similar to the intro.
-11--12--14--------11--12--14--18~---16--18--19~---
-------------12~-----------------------------------
--9--10--12---------9--10--12--16~---14--16--17~---
-------------10~-----------------------------------
Oh my hero... -19--18--16--14~---14--14--12--11--12~--12--12--11-
-17--16--14--12~---12--12--10---9--10~--10--10---9-
                         Fi
---------------------|------------------------------
---------------------|------------------------------
-9--11~--11--11~--11-|-9--7--9--11--14~-------------
---------------------|------------------------------
-7---9~---9---9~---9-|-7--5--7---9--12~-------------
---------------------|------------------------------
---------------------|------------------------------
---------------------|-9--7--9--7~------------------
---------------------|------------------------------
---------------------|-7--5--7--5~------------------
---------------------|------------------------------
---------------------|------------------------------
That's all for now, hope you enjoy.