Misc. Computer Games - Legend Of Zelda - Zeldas Lullaby Chords

 
No chord
Standard guitar tuning:
E
A
D
G
B
E
No capo
I'm pretty sure ths is right. G| ------------2-0-----
D| -0-----0---0---0---
A| 2-0-0-2-0-2-----3-2-0
E| ---3----------------
G| ------------2-0-7-
D| -0 ----0---0------
A| 2-0-0-2-0-2--------
E| ---3--------------
G|7-5-4-5-4-0--5-4-0-4-0--7-5-4-5-4-0-5-12
D|----------------------2-----------------
A|----------------------------------------
E|----------------------------------------