Misc. Computer Games - Silent Hill - Theme Of Laura Chords

 
No chord
Standard guitar tuning:
E
A
D
G
B
E
No capo

Intro

The guitar begins with one up strum, means you draw from high E to low E once.
----------------------|
-1--------------------|
----------------------|
-2----4----5-5h7-5--4-| and from the beginning again
-3----5----7-7---7--5-|
----------------------|
After playing the intro a few times change to:
Let these chords ring
----------------------|
-----2-1--------------|
----------------------|
-2---2-2--------------| and from the beginning again
-2---2-2--------------|
----------------------|
That´s about it, it´s not perfect but it´s enough. You have to listen to the soundtrack get the tempo and rythm right.