Misc. Soundtrack - The Pacific Theme Chords

 
         
         
         
         
         
X
3
2
1
3 fr
         
         
         
         
         
X
1
2
3
4
1
8 fr
         
         
         
         
         
1
3
4
2
1
1
3 fr
         
         
         
         
         
X
1
X
3
4
1
5 fr
         
         
         
         
         
3
2
1
1
1
4
10 fr
         
         
         
         
         
X
X
1
3
4
3

12 fr
         
         
         
         
         
X
4
3
1
2
1
3 fr
         
         
         
         
         
X
         
         
         
         
         
X
2
4
7 fr
         
         
         
         
         
1
4
3
1
2
1
         
         
         
         
         
X
1
X
X
3
4
         
         
         
         
         
X
1
3
4
2 fr
         
         
         
         
         
X
1
4
3
2
X
         
         
         
         
         
X
2
3
1
5 fr
         
         
         
         
         
1
3
4
1
1
1
5 fr
         
         
         
         
         
X
X
1
1
1
8 fr
         
         
         
         
         
X
3
2
4
1
2 fr
         
         
         
         
         
X
1
4
4
4
7 fr
         
         
         
         
         
X
1
3
4
2

9 fr
         
         
         
         
         
X
4
3
1
2
X
12 fr
         
         
         
         
         
X
1
3
4
2
1
5 fr
         
         
         
         
         
X
         
         
         
         
         
1
3
4
2
1
1
5 fr
         
         
         
         
         
X
4
3
1
2
1
3 fr
         
         
         
         
         
X
X
1
2
4
3
         
         
         
         
         
X
X
3
2
1
1
8 fr
         
         
         
         
         
X
1
3
3
3
1
10 fr
         
         
         
         
         
4
3
1
1
1
X

10 fr
         
         
         
         
         
3
2
1
1
1
4
         
         
         
         
         
3
2
4
3 fr
         
         
         
         
         
1
3
4
2
1
1
         
         
         
         
         
2
1
3
4
3 fr
         
         
         
         
         
X
X
3
2
1
1
5 fr
         
         
         
         
         
X
X
1
3
4
3
7 fr
         
         
         
         
         
X
4
3
1
2
1

10 fr
         
         
         
         
         
X
1
2
3
4
X
10 fr
         
         
         
         
         
X
1
3
3
3
1
12 fr
         
         
         
         
         
3
2
1
1
1
4
No chord
Standard guitar tuning:
E
A
D
G
B
E
Capo on 1 fret
C                C
----------0-----|----------0-----|
------1-3---3---|------1-3---3---|
----------------|----------------|
----------------|----------------|
3---------------|3---------------|
----------------|----------------|
 C   G/B          Am               F                G
----------------|-0--------------|-1-0-3-0--------|----------------|
-1---3----------|----------------|----------------|-3--------------|
-0--------------|----------------|----------------|----------------|
-2--------------|----------------|----------------|----------------|
-3---2----------|-0--------------|----------------|----------------|
----------------|----------------|-1--------------|-3--------------|
 Am               F               C                C
----------------|----------------|----------0-----|----------0-----|
-1-0------------|----------------|------1-3---3---|------1-3---3---|
-----0----------|-2--------------|----------------|----------------|
----------------|----------------|----------------|----------------|
-0--------------|----------------|3---------------|3---------------|
----------------|-1--------------|----------------|----------------|
 C   G/B          Am               F                G
----------------|-0--------------|-1-0-3-0--------|----------------|
-1---3----------|----------------|----------------|-3--------------|
-------0--------|----------------|----------------|----------------|
----------------|----------------|----------------|----------------|
-3---2----------|-0--------------|----------------|----------------|
----------------|----------------|-1--------------|-3--------------|
 Am               F                C               C
-8-7------------|-5--------------|----------0-----|----------0-----|
-----8----------|----------------|------1-3---3---|------1-3---3---|
----------------|----------------|----------------|----------------|
-7--------------|----------------|----------------|----------------|
----------------|-8--------------|-3--------------|3---------------|
----------------|----------------|----------------|----------------|
C                 Am
----------0-----|----------------|
------1-3---3-0-|-1---1-0--------|
----------------|---0------------|
----------------|----------------|
3---------------|-0--------------|
----------------|----------------|
 F               Am                F               Am
----------------|----0-----------|----------------|----0-----------|
-----1-0--------|1-3---3-0-------|-----1-0--------|1-3---3-0-------|
-2-0------------|----------------|-2-0------------|----------------|
----------------|----------------|----------------|----------------|
----------------|0---------------|----------------|0---------------|
-1------------- |----------------|-1--------------|----------------|
 F               Am               F
----------------|----0-3---------|----------------|
-----1-0--------|1-3-------------|---1-3----------|
-2-0------------|----------------|-2-----0--------|
----------------|----------------|----------------|
----------------|0---------------|----------------|
-1--------------|----------------|-1--------------|
 C   G/B          Am               F                G
----------------|-0--------------|-1-0-3-0--------|----------------|
-1---3----------|----------------|----------------|-3--------------|
-------0--------|----------------|----------------|----------------|
----------------|----------------|----------------|----------------|
-3---2----------|-0--------------|----------------|----------------|
----------------|----------------|-1--------------|-3--------------|
 Am               F                Am               G
-8-7------------|-5--------------|---0-3----------|----------------|
-----8----------|----------------|-1-----1--------|-3--------------|
----------------|----------------|----------------|----------------|
-7--------------|----------------|----------------|----------------|
----------------|-8--------------|-0--------------|----------------|
----------------|----------------|----------------|-3--------------|
 C                C                C
-----------0----|----------0-----|----------0-----|
-1-----1-3---3--|------1-3---3---|-----1-3---3-1--|
----------------|----------------|----------------|
----------------|----------------|----------------|
-3--------------|-3--------------|-3--------------|
----------------|----------------|----------------|