Misc. Traditional - Oh Canada Chords

 
No chord
Standard guitar tuning:
E
A
D
G
B
E
No capo
                           |------------|
| OH CANADA! |
                           |------------|
=0D
E  | --------- | --------- | --------- | --------- | --------- |
B  | --------- | --------- | --------- | --------- | --------- |
G  | --------- | --------- | -0------- | -----0-2- | -2-0-0--- |
D  | -0-3-3--- | ---0-1-3- | -----0-2- | -2-3----- | -------3- |
A  | -------1- | -3------- | ---3----- | --------- | --------- |
E  | --------- | --------- | --------- | --------- | --------- |
=0D
E  | --------- | --------- | --------- | --------- | --------- |
B  | --------- | --------- | --------- | --------- | --------- |
G  | --------- | --------- | --------- | -0------- | --------- |
D  | ---0-1-0- | ---0-1-3- | -1-0-1-3- | ---3-1-0- | -----0-1- |
A  | -3------- | -3------- | --------- | --------- | -3-3----- |
E  | --------- | --------- | --------- | --------- | --------- |
=0D
E  | --------- | --------- | --------- | --------- | --------- |
B  | --------- | --------- | --------- | --------- | --------- |
G  | --------- | --------- | --------- | --------- | --------- |
D  | -0---0-1- | -3-1-0-0- | ---3-3-2- | -0-2-3-0- | -3-3---1- |
A  | ---3----- | --------- | -3------- | --------- | -----1--- |
E  | --------- | --------- | --------- | --------- | --------- |
=0D
E  | --------- | --------- | --------- | --------- | --------- |
B  | --------- | --------- | --------- | --------- | --------- |
G  | ---0-0--- | -------0- | --------- | -------3- | -3-0----- |
D  | -1------- | -3-4-4--- | -1-0----- | ---0-3--- | -----1-0- |
A  | -------3- | --------- | -----3-1- | -3------- | --------- |
E  | --------- | --------- | --------- | --------- | --------- |
=0D
E  | --------- | =
B  | --------- | =
G  | -----2-3- | =
D  | ---3----- | =
A  | -3------- | =
E  | --------- | =
=0D --PART.BOUNDARY.0.16174.mail04.mail.aol.com.815705376--