Moby - Scream Pilots Chords

 
         
         
         
         
         
X
3
2
1
3 fr
         
         
         
         
         
X
1
2
3
4
1
8 fr
         
         
         
         
         
1
3
4
2
1
1
3 fr
         
         
         
         
         
X
1
X
3
4
1
5 fr
         
         
         
         
         
3
2
1
1
1
4
10 fr
         
         
         
         
         
X
X
1
3
4
3

12 fr
         
         
         
         
         
X
4
3
1
2
1
3 fr
         
         
         
         
         
X
         
         
         
         
         
3
2
4
3 fr
         
         
         
         
         
1
3
4
2
1
1
         
         
         
         
         
2
1
3
4
3 fr
         
         
         
         
         
X
X
3
2
1
1
5 fr
         
         
         
         
         
X
X
1
3
4
3
7 fr
         
         
         
         
         
X
4
3
1
2
1

10 fr
         
         
         
         
         
X
1
2
3
4
X
10 fr
         
         
         
         
         
X
1
3
3
3
1
12 fr
         
         
         
         
         
3
2
1
1
1
4
         
         
         
         
         
X
2
3
1
5 fr
         
         
         
         
         
1
3
4
1
1
1
5 fr
         
         
         
         
         
X
X
1
1
1
8 fr
         
         
         
         
         
X
3
2
4
1
2 fr
         
         
         
         
         
X
1
4
4
4
7 fr
         
         
         
         
         
X
1
3
4
2

9 fr
         
         
         
         
         
X
4
3
1
2
X
12 fr
         
         
         
         
         
X
1
3
4
2
1
5 fr
         
         
         
         
         
X
         
         
         
         
         
X
X
1
3
2
2 fr
         
         
         
         
         
X
4
3
1
2
1
5 fr
         
         
         
         
         
X
1
2
3
4
1
5 fr
         
         
         
         
         
X
1
4
4
4
X
7 fr
         
         
         
         
         
4
3
1
1
1
X
7 fr
         
         
         
         
         
3
2
1
1
1
4

10 fr
         
         
         
         
         
1
3
4
2
1
1
12 fr
         
         
         
         
         
X
X
1
3
4
3
5 fr
         
         
         
         
         
X
X
         
         
         
         
         
2
3
3 fr
         
         
         
         
         
X
X
2
4
1
7 fr
         
         
         
         
         
X
1
3
4
2
1
2 fr
         
         
         
         
         
X
X
1
3
4
2
3 fr
         
         
         
         
         
X
3
2
4
1
4 fr
         
         
         
         
         
X
4
3
1
2
X

12 fr
         
         
         
         
         
1
3
4
1
1
1
No chord
Standard guitar tuning:
E
A
D
G
B
E
No capo
Chords used: C, G, Am, D, Em
Chords-

C

e|-----0---------------------------------| B|-----1---------------------------------| G|-----0---------------------------------| D|-----2---------------------------------| A|-----3---------------------------------| E|-----x---------------------------------|
G
e|-----3---------------------------------|
B|-----0---------------------------------|
G|-----0---------------------------------|
D|-----0---------------------------------|
A|-----2---------------------------------|
E|-----3---------------------------------|
Am
e|-----0---------------------------------|
B|-----1---------------------------------|
G|-----2---------------------------------|
D|-----2---------------------------------|
A|-----0---------------------------------|
E|-----0---------------------------------|
D
e|-----2---------------------------------|
B|-----3---------------------------------|
G|-----2---------------------------------|
D|-----0---------------------------------|
A|-----x---------------------------------|
E|-----x---------------------------------|
Em
e|-----0---------------------------------|
B|-----0---------------------------------|
G|-----0---------------------------------|
D|-----2---------------------------------|
A|-----2---------------------------------|
E|-----0---------------------------------|
Song:

C G Am D Em

CIt GkeeAmps rDepeEmating this pattern the entire way through. For the last seconds of the song as it fades out, the changing stops and it stays on Em.