Monster Magnet - Monolithic Chords

 
No chord
Drop guitar tuning:
D
D
A
D
G
B
No capo
e|-----------------------------|
B|-----------------------------|
G|-----------------------------| Riff 1
D|--13-12-10--x----13-15-10--x-|
A|--13-12-10--x----13-15-10--x-|
D|--13-12-10--x----13-15-10--x-|
                                     u d u d u d u d    u= up
e|---------------------------------------------------|  d= down
B|---------------------------------------------------|
G|---------------------------------------------------|  Riff 2
D|--6----10----6----10----6----10----6-6-6-6-6-6-6-6-|  (alternate strumming
A|--6----10----6----10----6----10----6-6-6-6-6-6-6-6-|   in here)
D|--6----10----6----10----6----10----6-6-6-6-6-6-6-6-|
e|-------|
B|-------|
G|-------| Play and hold this chord when I tell you to.
D|--10---|
A|--10---|
D|--10---|
e|-------------------------------------------|
B|-------------------------------------------|
G|-------------------------------------------|  Riff 3
D|--x-x-10---x-x-x-10---x-x-x-10---x-x-x-13--|
A|--x-x-10---x-x-x-10---x-x-x-10---x-x-x-13--|
D|--x-x-10---x-x-x-10---x-x-x-10---x-x-x-13--|
e|-----------------------------------------------------|
B|-----------------------------------------------------|
G|-----------------------------------------------------|  Riff 4
D|--x-x-10---x-x-x-10---x-x-x-10---13-13-13-13-12--12--| (pretty much the same A|--x-x-10---x-x-x-10---x-x-x-10---13-13-13-13-12--12--| as riff 3, but a D|--x-x-10---x-x-x-10---x-x-x-10---13-13-13-13-12--12--| little different) Order: Riff 1 x4 Hold the last note Riff 1 x8 Riff 2 x2

Bass solo

Riff 1 x4 Riff 2 x2 Hold that one chord Riff 1 x4 Riff 3 x10 First guitar solo is in this part (not tabbed) Riff 2 x4 Another bass part Riff 3 x4 Riff 4 x8 Second guitar solo is in this part (also not tabbed)