Mu330 - Pool Party Chords

 
No chord
Standard guitar tuning:
E
A
D
G
B
E
No capo
e|-----------------|
B|-----------------|
G|--4--5--4--6--3--|
D|--4--5--4--6--3--|        x3
A|--2--3--2--4--1--|
E|-----------------|
the verse and chorus and basically the same along with the riff played after the intro..here are the chords..
e|--------------|
B|--------------|
G|--4--3--4--5--|
D|--4--3--4--5--|
A|--2--1--2--3--|
E|--------------|
this is basically it, like i said strumming and rymthm is easy to find, enjoy the tab..