Mu330 - San Francisco Chords

 
No chord
    
Standard guitar tuning:
E
A
D
G
B
E
No capo
intro chords x2
 e|--------------|
 B|--------------|
 G|--2--4--6--8--|
 D|--2--4--6--8--|
 A|--0--2--4--6--|
 E|--------------|
then guitar plays this riff:
e|-------------------------------------------------|
B|--9-7-5--4-5-7-----9-7-5-5-3-1-1s2-2s3-2s3s2-----|  x2
G|---------------6-4---------------------------4-2-|

Verse

D|--5-7---55557777--9-|
A|--5-7---55557777--9-|
E|--3-5---33335555--7-|

Chorus

G|--2--4--6--4-|
D|--2--4--6--4-|
A|--0--2--4--2-|
for the ending just play the intro. that's it..