Mylene Farmer - Lamour Nest Rien Chords

 

Em

variations
6 fr
         
         
         
         
         
X
1
3
4
2
1
         
         
         
         
         
X
X
1
3
4
2
3 fr
         
         
         
         
         
X
4
2
1
X
X
6 fr
         
         
         
         
         
X
1
X
X
2
1
3 fr
         
         
         
         
         
X
4
3
1
2
X
11 fr
         
         
         
         
         
1
3
4
1
1
1

Bm

variations
         
         
         
         
         
X
1
3
4
2
1
6 fr
         
         
         
         
         
1
3
4
1
1
1
         
         
         
         
         
X
1
3
4
2
X
6 fr
         
         
         
         
         
X
X
3
1
1
1
8 fr
         
         
         
         
         
X
X
1
3
4
2
10 fr
         
         
         
         
         
X
4
3
1
2
X

C

variations
4 fr
         
         
         
         
         
X
1
2
3
4
1
         
         
         
         
         
X
4
3
1
2
1
4 fr
         
         
         
         
         
X
1
4
4
4
X
6 fr
         
         
         
         
         
4
3
1
1
1
X
6 fr
         
         
         
         
         
3
2
1
1
1
4
9 fr
         
         
         
         
         
1
3
4
2
1
1

11 fr
         
         
         
         
         
X
X
1
3
4
3

A

variations
4 fr
         
         
         
         
         
1
3
4
2
1
1
4 fr
         
         
         
         
         
X
X
3
2
1
1
6 fr
         
         
         
         
         
X
X
1
2
4
3
         
         
         
         
         
3
2
1
1
1
4
8 fr
         
         
         
         
         
X
4
3
1
2
1
11 fr
         
         
         
         
         
X
1
2
3
4
X

11 fr
         
         
         
         
         
X
1
3
3
3
1
         
         
         
         
         
X
X
2
3
1
5 fr
         
         
         
         
         
X
1
3
4
2
1
10 fr
         
         
         
         
         
X
X
1
1
1
5 fr
         
         
         
         
         
X
X
3
2
1
2 fr
         
         
         
         
         
X
4
3
1
2
X
10 fr
         
         
         
         
         
1
3
4
1
1
1

12 fr
         
         
         
         
         
X
X
1
3
4
2
         
         
         
         
         
X
2
3
1
5 fr
         
         
         
         
         
1
3
4
1
1
1
5 fr
         
         
         
         
         
X
X
1
1
1
8 fr
         
         
         
         
         
X
3
2
4
1
2 fr
         
         
         
         
         
X
1
4
4
4
7 fr
         
         
         
         
         
X
1
3
4
2

9 fr
         
         
         
         
         
X
4
3
1
2
X
12 fr
         
         
         
         
         
X
1
3
4
2
1
5 fr
         
         
         
         
         
X
         
         
         
         
         
X
3
2
1
3 fr
         
         
         
         
         
X
1
2
3
4
1
8 fr
         
         
         
         
         
1
3
4
2
1
1
3 fr
         
         
         
         
         
X
1
X
3
4
1
5 fr
         
         
         
         
         
3
2
1
1
1
4
10 fr
         
         
         
         
         
X
X
1
3
4
3

12 fr
         
         
         
         
         
X
4
3
1
2
1
3 fr
         
         
         
         
         
X
         
         
         
         
         
3
2
4
3 fr
         
         
         
         
         
1
3
4
2
1
1
         
         
         
         
         
2
1
3
4
3 fr
         
         
         
         
         
X
X
3
2
1
1
5 fr
         
         
         
         
         
X
X
1
3
4
3
7 fr
         
         
         
         
         
X
4
3
1
2
1

10 fr
         
         
         
         
         
X
1
2
3
4
X
10 fr
         
         
         
         
         
X
1
3
3
3
1
12 fr
         
         
         
         
         
3
2
1
1
1
4
No chord
    
Standard guitar tuning:
E
A
D
G
B
E
Capo on 1 fret
Couplet

Em Bm C Bm

E||--2----1----1----1----|| B||--4----2----2----2----|| G||--3----3----1----3----|| D||--1----3----3----3----|| A||-------1----4----1----|| E||----------------------||
EmObsédée du pire Et pas très prolixe BmMes moindres soupirs Se métaphysiquent... CJ'ai dans mon ciel Des tonnes de célestes BmM'accroche aux ailes... Et tombe l'ange Gabriel!

Refrain

     C   A   Em  A      A
E||--1----4----2----4----|--4----||
B||--2----4----4----4----|--1----||
G||--1----5----3----5----|--1----||
D||--3----6----1----6----|--1----||
A||--4----6---------6----|--3----||
E||-------4---------4----|--4----||
CL'amour, c'est rien ! AQuand c'est politiquement correct EmOn s'aime bien AOn n' sait même pas quand on se blesse Evidemment on peut la jouer avec un capodastre aussi C'est plus facile! Du coup ça donne ça
     Dm   Am   C    Am
E||--1----0----0----0----||
B||--3----1----1----1----||
G||--2----2----0----2----||
D||--0----2----2----2----||
A||-------0----3----0----||
E||----------------------||
     C    G    Dm   G
E||--0----3----1----3----||
B||--1----0----3----0----||
G||--0----0----2----0----||
D||--2----0----0----0----||
A||--3----2---------2----||
E||-------3---------3----||
On peut aussi la jouer comme ça, un peu plus haut
  Em  Bm  C   Bm
E||--6----6----4----6----||
B||--7----6----6----6----||
G||--8----6----6----6----||
D||--8----8----6----8----||
A||--6----8----4----8----||
E||-------6---------6----||

Refrain

     C   A   Em  A
E||--4----4----6----4----||
B||--6----4----7----4----||
G||--6----5----8----5----||
D||--6----6----8----6----||
A||--4----6----6----6----||
E||-------4---------4----||
Basse (synthé)
G||----------------------|----------------------|
D||----------------------|----------------------|
A||--6----6----6---------|--6----6----6---------|
E||----------------------|----------------------|
----------------------|----------------------|
----------------------|----------------------|
----------------------|----------------------|
--6----6----6---------|--6----6----6---------|
----------------------|----------------------|
----------------------|----------------------|
--4----4----4---------|--4----4----4---------|
----------------------|----------------------|
----------------------|----------------------||
----------------------|----------------------||
----------------------|----------------------||
--6----6----6---------|--6----6----6---------||
Lyrics Couplet 1 : ( Em Bm C Bm )

Refrain

C A Em A

Couplet 2 : ( Em Bm C Bm )