Nada Surf - From Now On Chords

 
7 fr
         
         
         
         
1
3
4
2
1
1
         
         
         
         
X
2
1
X
3
         
         
         
         
X
1
4
4
4
X
         
         
         
         
X
1
3
3
3
1
4 fr
         
         
         
         
4
3
1
1
1
X
4 fr
         
         
         
         
3
2
1
1
1
4

9 fr
         
         
         
         
X
X
1
3
4
3
11 fr
         
         
         
         
X
4
3
1
2
1

F

variations
         
         
         
         
1
3
4
2
1
1
         
         
         
         
X
X
3
2
1
1
6 fr
         
         
         
         
X
4
3
1
2
1
4 fr
         
         
         
         
X
X
1
2
4
3
9 fr
         
         
         
         
X
1
3
3
3
1
11 fr
         
         
         
         
4
3
1
1
1
X

11 fr
         
         
         
         
3
2
1
1
1
4
         
         
         
         
2
3
1
4 fr
         
         
         
         
X
4
3
1
2
1
7 fr
         
         
         
         
X
1
4
4
4
X
2 fr
         
         
         
         
X
X
1
2
4
3
4 fr
         
         
         
         
4
3
1
2
1
7 fr
         
         
         
         
X
1
3
3
3
1

9 fr
         
         
         
         
4
3
1
1
1
X
9 fr
         
         
         
         
3
2
1
1
1
4
12 fr
         
         
         
         
1
3
4
2
1
1
4 fr
         
         
         
         
X

C

variations
4 fr
         
         
         
         
X
1
2
3
4
1
         
         
         
         
X
4
3
1
2
1
4 fr
         
         
         
         
X
1
4
4
4
X
6 fr
         
         
         
         
4
3
1
1
1
X
6 fr
         
         
         
         
3
2
1
1
1
4
9 fr
         
         
         
         
1
3
4
2
1
1

11 fr
         
         
         
         
X
X
1
3
4
3

E

variations
3 fr
         
         
         
         
X
4
3
1
2
1
6 fr
         
         
         
         
X
1
2
3
4
1
         
         
         
         
X
X
1
2
4
3
3 fr
         
         
         
         
X
4
3
1
2
X
8 fr
         
         
         
         
4
3
1
1
1
X
8 fr
         
         
         
         
3
2
1
1
1
4

11 fr
         
         
         
         
1
3
4
2
1
1
No chord
Standard guitar tuning:
E
A
D
G
B
E
Capo on 4 fret

Verse

B F E C

E---3---(2)--(3)--(3)---------------|
B--(3)---3----1----1----------------|
G---0----2----0----2----------------|     x4
D---0----0----2----2----------------|
A---2---------3----0----------------|
E---3-------------------------------|

Interlude

0:23
After u played the "F#" at the 4th time, theres a little interlude instead of "E" and "C#":

E E C

E--0---------------2---------------0-------------------| B--1---------------3---------------1-------------------|
G--0--(hit once)---4--(hit once)---2--(hit twice)------|
D--2---------------4---------------2-------------------|
A--3---------------2---------------0-------------------|
E------------------------------------------------------|

Chorus

0:28
E-(E3)--B3--(E2)-(E3)--------------|
B--1--(3)--3---1---------------|
G--0---0---4---0---------------|
D--2---0---4---2---------------|  x4
A--3---2---2---3---------------|
E------3-----------------------|

Verse

0:54
Play the same as before, but only 3 times.

B F E C

E---3---(2)-(3)-(3)---------------------|
B--(3)---3---1---1----------------------|
G---0----2---0---2----------------------|     x3
D---0----0---2---2----------------------|
A---2--------3---0----------------------|
E---3-----------------------------------|

Interlude

1:09
Same as before, but now usual strumming:
E---0--2--0--------|
B---1--3--1--------|
G---0--4--2--------|
D---2--4--2--------|
A---3--2--0--------|
E------------------| Now still playing the Interlude:
"Now i turn to the seasons, the sleeping demons..."

B E E C B E E C

E---3---2--(3)--0--------3---------------0----2----0-----|
B--(3)--3---1---1-------(3)--------------1----3----1-----|
G---0---4---0---2--------0---4-5-4-2-4---0----4----2-----|
D---0---4---2---2--------0---4-5-4-2-4---2----4----2-----|
A---2---2---3---0--------2---2-3-2-0-2---3----2----0-----|
E---3--------------------3-------------------------------|

Bridge

1:28 (or "Turn-Up")

F E B F E B

E--2--------0-------3-----------2------0-------3------------| B--3--------1-------3-----------3------1-------3------------| G--2--x1----0--x1---0--x1-------2-x1---0--x1---0------------| D--0--------2-------0-----------0------2-------0------------| A-----------3-------2------------------3-------2------------| E-------------------3--------------------------3-3333333----|
At this time u play the main chords once and the lower notes in a way what italian would "crescendo". That means, that your strumming is getting louder and louder... U dont have to understand what im talking about :)
   F           E             B
E--2------------0-------------3---------------------|
B--3------------1-------------0---------------------|
G--2------------0-------------0---------------------|
D--0-0000000----2----22222----0---(000)-------------|
A---------------3--3333333----2-2222222-------------|
E-----------------------------3-3333333-------------|

Outro

Chorus: 1:44 Play the Chorus a few times... til the end. Thats it! I hope this helped, please rate, comment and correct me! Cheers...