Nerf Herder - New Jersey Girl Chords

 
No chord
Standard guitar tuning:
E
A
D
G
B
E
No capo

Verses

clean)
E|--------2-------2----||
B|---2----3---4---3----||
G|---2----2---4---2----||
D|---2--------4--------||
A|---0--------2--------||
E|---------------------||

Chorus

distorted)
E|-----------------------||
B|-----------------------||
G|--------7---------7----||
D|---7----7----9----7----||
A|---7----5----9----5----||
E|---5---------7---------||