Nevershoutnever - Dare4distance Chords

 
No chord
Standard guitar tuning:
E
A
D
G
B
E
No capo
   I got the concept...  top floor...  fact that...  cant' get...
e|------------0------------0------------0-------------0--------------------|
B|------------0------------0------------0-------------0--------------------|
G|------------9------------9------------6-------------2--------------------|
D|------------9------------9------------6-------------4--------------------|
A|------------7------------6------------4-------------4--------------------|
E|------------0------------0------------0-------------0--------------------|
          you appeared...  marched... is where...    both just...
e|------------0~-----------0~-----------0~------------0~-------------------|
B|--------0---0~-----------0~-----------0~------------0~-------------------|
G|------------9~-----------9~-----------6~------------2~-------------------|
D|------------9~-----------9~-----------6~------------4~-------------------|
A|------------7~-----------6~-----------4~------------4~-------------------|
E|------------0~-----------0~-----------0~------------0~-------------------|
     although the distance is daring we both know how to drive
e|-------------------0-------------------0-----------------0---------------|
B|-------------------0-------------------0-----------------0---------------|
G|-------------------6-------------------4-----------------0---------------|
D|-------------------6-------------------4-----------------2---------------|
A|-------------------4-------------------2-----------------2---------------|
E|-------------------0-------------------0-----------------0---------------|
CHORUS!!! we can't make up... lost times... I can't stand the fact... e|---0~---------0~---------0~-----------0~-------0~--------0~--------------| B|---0~---------0~---------0~-----------0~-------0~--------0~--------------| G|---1~---------4~---------2~-----------1~-------4~--------2~--------------| D|---2~---------4~---------2~-----------2~-------4~--------2~--------------| A|---2~---------2~---------0~-----------2~-------2~--------0~--------------| E|---0~---------0~---------0~-----------0~-------0~--------0~--------------|
  is the center   of my   day
e|---------0--------0------0-----------------------------------------------|
B|---------0--------0------0-----------------------------------------------|
G|---------6--------4------2-----------------------------------------------|
D|---------6--------4------2-----------------------------------------------|
A|---------4--------2------0-----------------------------------------------|
E|---------0--------0------0-----------------------------------------------|
Alt. VERSE!!! play the verse but just mute all the strings and keep a strum going in between the chords till the end CHORUS!!! play it the same but repeat the ending once BRIDGE!!! mon.. tues.. wed.. worst.. thurs.. fri.. face.. breathe.. e|---0~-------0~-------0~-------0~-------0~-------0~-------0~-------0~-----| B|---0~-------0~-------0~-------0~-------0~-------0~-------0~-------0~-----| G|---1~-------4~-------6~-------2~-------1~-------4~-------6~-------2~-----| D|---2~-------4~-------6~-------2~-------2~-------4~-------6~-------2~-----| A|---2~-------2~-------4~-------0~-------2~-------2~-------4~-------0~-----| E|---0~-------0~-------0~-------0~-------0~-------0~-------0~-------0~-----| OUTRO!!!
     although the distance is daring i sure know what its like to be alone
e|-------------------0-------------------0-----------------0---------------|
B|-------------------0-------------------0-----------------0---------------|
G|-------------------6-------------------4-----------------2---------------|
D|-------------------6-------------------4-----------------2---------------|
A|-------------------4-------------------2-----------------0---------------|
E|-------------------0-------------------0-----------------0---------------|
so there it is :] hope it works for you