Night Ranger - Don't Tell Me You Love Me Chords

Main Riff
 

F5

variations
         
         
         
         
         
1
3
4
X
X
X
4 fr
         
         
         
         
         
X
X
1
3
4
X
9 fr
         
         
         
         
         
X
1
3
4
X
X
         
         
         
         
         
X
1
2
X
X
5 fr
         
         
         
         
         
1
3
4
X
X
X
7 fr
         
         
         
         
         
X
X
1
3
4
X
         
         
         
         
         
X
X
5 fr
         
         
         
         
         
X
X
5 fr
         
         
         
         
         
X
X
7 fr
         
         
         
         
         
1
3
4
2
1
1
         
         
         
         
         
X
2
1
X
3
         
         
         
         
         
X
1
4
4
4
X
         
         
         
         
         
X
1
3
3
3
1
4 fr
         
         
         
         
         
4
3
1
1
1
X
4 fr
         
         
         
         
         
3
2
1
1
1
4

9 fr
         
         
         
         
         
X
X
1
3
4
3
11 fr
         
         
         
         
         
X
4
3
1
2
1
         
         
         
         
         
X
1
2
3
5 fr
         
         
         
         
         
1
3
4
2
1
1
2 fr
         
         
         
         
         
X
1
1
1
4
         
         
         
         
         
X
X
1
2
2 fr
         
         
         
         
         
3
2
1
1
1
4
7 fr
         
         
         
         
         
X
X
1
3
4
3

9 fr
         
         
         
         
         
X
4
3
1
2
1
12 fr
         
         
         
         
         
X
1
3
3
3
1

Fm

variations
         
         
         
         
         
1
3
4
1
1
1
4 fr
         
         
         
         
         
X
X
1
3
4
2
         
         
         
         
         
X
X
3
1
1
1
9 fr
         
         
         
         
         
X
1
3
4
2
1
6 fr
         
         
         
         
         
X
4
3
1
2
X
         
         
         
         
         
2
3
1
4 fr
         
         
         
         
         
X
4
3
1
2
1
7 fr
         
         
         
         
         
X
1
4
4
4
X
2 fr
         
         
         
         
         
X
X
1
2
4
3
4 fr
         
         
         
         
         
4
3
1
2
1
7 fr
         
         
         
         
         
X
1
3
3
3
1

9 fr
         
         
         
         
         
4
3
1
1
1
X
9 fr
         
         
         
         
         
3
2
1
1
1
4
12 fr
         
         
         
         
         
1
3
4
2
1
1
4 fr
         
         
         
         
         
X
         
         
         
         
         
X
X
1
2
X
5 fr
         
         
         
         
         
X
1
3
4
X
X
10 fr
         
         
         
         
         
1
3
4
X
X
X
         
         
         
         
         
1
1
X
X
X
2 fr
         
         
         
         
         
X
X
1
3
4
X
7 fr
         
         
         
         
         
X
1
3
4
X
X
         
         
         
         
         
X
X
X
7 fr
         
         
         
         
         
X
X

C5

variations
4 fr
         
         
         
         
         
X
1
3
4
X
X
9 fr
         
         
         
         
         
1
3
4
X
X
X
11 fr
         
         
         
         
         
X
X
1
3
4
X
4 fr
         
         
         
         
         
X
X
         
         
         
         
         
X
1
3
4
X
X
7 fr
         
         
         
         
         
1
3
4
X
X
X
9 fr
         
         
         
         
         
X
X
1
3
4
X
         
         
         
         
         
X
X
         
         
         
         
         
X
X
1
3
2
2 fr
         
         
         
         
         
X
4
3
1
2
1
5 fr
         
         
         
         
         
X
1
2
3
4
1
5 fr
         
         
         
         
         
X
1
4
4
4
X
7 fr
         
         
         
         
         
4
3
1
1
1
X
7 fr
         
         
         
         
         
3
2
1
1
1
4

10 fr
         
         
         
         
         
1
3
4
2
1
1
12 fr
         
         
         
         
         
X
X
1
3
4
3
5 fr
         
         
         
         
         
X
X

C

variations
4 fr
         
         
         
         
         
X
1
2
3
4
1
         
         
         
         
         
X
4
3
1
2
1
4 fr
         
         
         
         
         
X
1
4
4
4
X
6 fr
         
         
         
         
         
4
3
1
1
1
X
6 fr
         
         
         
         
         
3
2
1
1
1
4
9 fr
         
         
         
         
         
1
3
4
2
1
1

11 fr
         
         
         
         
         
X
X
1
3
4
3
         
         
         
         
         
X
1
3
4
2
1
7 fr
         
         
         
         
         
1
3
4
1
1
1
         
         
         
         
         
X
1
3
4
2
X
7 fr
         
         
         
         
         
X
X
3
1
1
1
9 fr
         
         
         
         
         
X
X
1
3
4
2
11 fr
         
         
         
         
         
X
4
3
1
2
X
         
         
         
         
         
3
2
4
3 fr
         
         
         
         
         
1
3
4
2
1
1
         
         
         
         
         
2
1
3
4
3 fr
         
         
         
         
         
X
X
3
2
1
1
5 fr
         
         
         
         
         
X
X
1
3
4
3
7 fr
         
         
         
         
         
X
4
3
1
2
1

10 fr
         
         
         
         
         
X
1
2
3
4
X
10 fr
         
         
         
         
         
X
1
3
3
3
1
12 fr
         
         
         
         
         
3
2
1
1
1
4
No chord
Standard guitar tuning:
E
A
D
G
B
E
No capo

Intro

E-------0----------------------0----------------|
B------------4-----------------------2----------|
G--4---------------4------2---------------2-----|
D-----------------------------------------------|
A-----------------------------------------------|
E-----------------------------------------------|
   F5
E-----------------------------------------------|
B-----------------------------------------------|
G-----------------------------------------------|
D--4--4--4--4--4---4--4----4---4--4--4--4--4--4-|
A--4--4--4--4--4---4--4----4---4--4--4--4--4--4-|
E--2--2--2--2--2---2--2----2---2--2--2--2--2--2-|
A5                           B  B   A   B

B

It ain't the way you move E---------------------| B--7--7---5---7--7----| G--8--8---6---8--8----| D--9--9---7---9--9----| A---------------------| E---------------------|

Fm E Fm E Fm E

FmIt aEin't the way that you move me Oh no A5It ain't the way you shake

Fm E Fm E Fm

EItFm ainE'tFm the way that you shake me oh no I lived TwD5enty-five years E5I'm a kD5id on the C5run I gotta pB5ick up her action DD5on't tell me you lFmove me dDon't tell me you lEove me DCon't tell me DI don't wAanna kBmnow F5 A5I love the way you use

Fm E Fm E Fm

EI FmloveE tFmhe way that you use me oh yeah A5I love the way you shoot

Fm E Fm E Fm

EI Fmlove the way that you shoot to kill me oh yeah FmI've taken mD5iles of lives to lE5earn the rD5ight From the wC5rong I'll keep you hB5angin' on So dD5on't tell me you lFmove me dDon't tell me you lEove me DCon't tell me DI don't wAanna kBmnow DD5on't tell me you lFmove me dDon't tell me you lEove me DCon't tell me DI don't wAanna kBmnow
   Fm
E-----------------------------------------------|
B-----------------------------------------------|
G-----------------------------------------------|
D--11---7--(11)---11--9--7--11--9--7---11--9--7-|
A-----------------------------------------------|
E-----------------------------------------------|
   D                         E
E--9^1/2----------------------------------------|
B-----------------------------------------------|
G-----------------------------------------------|
D---------11--7--11--9--7---(9)---9--11--9--11--|
A-----------------------------------------------|
E-----------------------------------------------|
                                    C
E-----------------------------------------------|
B-----------------------------------------------|
G-----------------------------------------------|
D--9--7--9--7---6--7---6--7---9--9--11--9--7--9-|
A-----------------------------------------------|
E-----------------------------------------------|
E-----------------------------------------------|
B-----------------------------------------------|
G-----------------------------------------------|
D--7--6--7---6--4--6--4---6--4--3---4--3--4--3--|
A-----------------------------------------------|
E-----------------------------------------------|
                  Bm
E-----------------21--19------------19----------|
B--------------------------22--21--------22--21-|
G-----------------------------------------------|
D-----------------------------------------------|
A--4--2--2--0-----------------------------------|
E-----------------------------------------------|
                                             D
E-------------------------------------19--21-22-|
B--19--22--21--19--------19--21--22-------------|
G-------------------21--------------------------|
D-----------------------------------------------|
A-----------------------------------------------|
E-----------------------------------------------|
                            B  A  B  B  A  B

B

E-----------------------------------------------| B-----7---8---10---7---8----7--5--7--7--5--7--7-| G--9------------------------8--6--8--8--6--8--8-| D---------------------------9--7--9--9--7--9--9-| A-----------------------------------------------| E-----------------------------------------------|
Riff 1 With F# Bass B Bass Don't tell me you love me don't tell me you love me ADoBassn't tell me you love me you love me love me yeah

Fm D E C D A Bm

DD5on't tell me you lFmove me dDon't tell me you lEove me DCon't tell me DI don't wAanna kBmnow

D Fm D E C D A

Bm D Fm D E C D A

Bm G

F5 F5 F5 F5 F5 F5