Nine Inch Nails - Eraser Chords

Main Riff
Main Riff
Main Riff
Main Riff
 
No chord
    
Standard guitar tuning:
E
A
D
G
B
E
No capo
E|--------------------------17-17--------------------|
for the intro.
B|---------------------------------------------------|
G|-14-14-14-14-14-14-14-14---------------------------|
with gradual bending
D|---------------------------------------------------|
notes on G string.
A|---------------------------------------------------|
E|---------------------------------------------------|
E|--------------------------14-14--------------------|
B|-16-16-16-16-16-16-16-16---------------------------|
G|---------------------------------------------------|
D|---------------------------------------------------|
A|---------------------------------------------------|
E|---------------------------------------------------|
                                  BASS PART WHILE SINGING
Here is the Bass
G|--------------------|------------------------------|
part.
D|--------------------|------------------------------|
A|--------------------|------------------------------|
E|-5-5-5-5-5-5-5--3-0-|-5-5-5-5-5-5-5--3-0-----------|
need you.... Guitar part to go
E|----------------|----------------------------------|
with Bass part.
B|--3--5----6--8--|--3--5----6--8--------------------|
G|--3--5----6--8--|--3--5----6--8--------------------|
D|--3--5----6--8--|--3--5----6--8--------------------|
A|----------------|----------------------------------|
E|----------------|----------------------------------|
Need you, dream you, find you, taste you, fuck you, use you, scar you, break you
                             pm.~~~~~~~~~~~~~
heavy part.
E|---------------------------------------------------|
B|---------------------------------------------------|
G|---------------------------------------------------|
D|-3--3---3-3-3-3-3-3-3------------------------------|
A|-3--3---3-3-3-3-3-3-3------------------------------|
E|-1--1---1-1-1-1-1-1-1------------------------------|