Nirvana - Big Cheese Chords

Main Riff
 
         
         
         
         
         
2
3
1
4 fr
         
         
         
         
         
X
4
3
1
2
1
7 fr
         
         
         
         
         
X
1
4
4
4
X
2 fr
         
         
         
         
         
X
X
1
2
4
3
4 fr
         
         
         
         
         
4
3
1
2
1
7 fr
         
         
         
         
         
X
1
3
3
3
1

9 fr
         
         
         
         
         
4
3
1
1
1
X
9 fr
         
         
         
         
         
3
2
1
1
1
4
12 fr
         
         
         
         
         
1
3
4
2
1
1
4 fr
         
         
         
         
         
X
No chord
Standard guitar tuning:
E
A
D
G
B
E
No capo

Intro

low E)
E|--8p7-|
   Verse               Chorus
E|------------(7)--| |----------|
B|------------(7)--| |----------|
G|------------(7)--| |----------|
D|--10--9-(9)------| |--4--5-5--|
A|--10--9-(9)------| |--4--5-5--|
E|--8---7-(7)------| |--2--3-3--|
Play Chorus over and over again Here's some leads that play after Chorus. Each is played several times.
  D|------------------| |--9-9-9-10-7-9-7-9-7-5--|
  A|----10------------| |--9-9-9-10-7-9-7-9-7-5--|
  E|--7----11-10-8-5--| |------------------------|