Nirvana - Unplugged In Ny Chords

 

C5

variations
4 fr
         
         
         
         
         
X
1
3
4
X
X
9 fr
         
         
         
         
         
1
3
4
X
X
X
11 fr
         
         
         
         
         
X
X
1
3
4
X
4 fr
         
         
         
         
         
X
X

A

variations
4 fr
         
         
         
         
         
1
3
4
2
1
1
4 fr
         
         
         
         
         
X
X
3
2
1
1
6 fr
         
         
         
         
         
X
X
1
2
4
3
         
         
         
         
         
3
2
1
1
1
4
8 fr
         
         
         
         
         
X
4
3
1
2
1
11 fr
         
         
         
         
         
X
1
2
3
4
X

11 fr
         
         
         
         
         
X
1
3
3
3
1
7 fr
         
         
         
         
         
1
3
4
2
1
1
         
         
         
         
         
X
2
1
X
3
         
         
         
         
         
X
1
4
4
4
X
         
         
         
         
         
X
1
3
3
3
1
4 fr
         
         
         
         
         
4
3
1
1
1
X
4 fr
         
         
         
         
         
3
2
1
1
1
4

9 fr
         
         
         
         
         
X
X
1
3
4
3
11 fr
         
         
         
         
         
X
4
3
1
2
1
         
         
         
         
         
X
1
3
4
X
X
7 fr
         
         
         
         
         
1
3
4
X
X
X
9 fr
         
         
         
         
         
X
X
1
3
4
X
         
         
         
         
         
X
X
         
         
         
         
         
2
3
3 fr
         
         
         
         
         
X
X
2
4
1
7 fr
         
         
         
         
         
X
1
3
4
2
1
2 fr
         
         
         
         
         
X
X
1
3
4
2
3 fr
         
         
         
         
         
X
3
2
4
1
4 fr
         
         
         
         
         
X
4
3
1
2
X

12 fr
         
         
         
         
         
1
3
4
1
1
1
         
         
         
         
         
3
2
4
3 fr
         
         
         
         
         
1
3
4
2
1
1
         
         
         
         
         
2
1
3
4
3 fr
         
         
         
         
         
X
X
3
2
1
1
5 fr
         
         
         
         
         
X
X
1
3
4
3
7 fr
         
         
         
         
         
X
4
3
1
2
1

10 fr
         
         
         
         
         
X
1
2
3
4
X
10 fr
         
         
         
         
         
X
1
3
3
3
1
12 fr
         
         
         
         
         
3
2
1
1
1
4
3 fr
         
         
         
         
         
1
3
4
X
X
X
5 fr
         
         
         
         
         
X
X
1
3
4
X
10 fr
         
         
         
         
         
X
1
3
4
X
X
         
         
         
         
         
X
3 fr
         
         
         
         
         
X
X

F5

variations
         
         
         
         
         
1
3
4
X
X
X
4 fr
         
         
         
         
         
X
X
1
3
4
X
9 fr
         
         
         
         
         
X
1
3
4
X
X
         
         
         
         
         
2
3
1
4 fr
         
         
         
         
         
X
4
3
1
2
1
7 fr
         
         
         
         
         
X
1
4
4
4
X
2 fr
         
         
         
         
         
X
X
1
2
4
3
4 fr
         
         
         
         
         
4
3
1
2
1
7 fr
         
         
         
         
         
X
1
3
3
3
1

9 fr
         
         
         
         
         
4
3
1
1
1
X
9 fr
         
         
         
         
         
3
2
1
1
1
4
12 fr
         
         
         
         
         
1
3
4
2
1
1
4 fr
         
         
         
         
         
X
         
         
         
         
         
X
1
2
X
X
5 fr
         
         
         
         
         
1
3
4
X
X
X
7 fr
         
         
         
         
         
X
X
1
3
4
X
         
         
         
         
         
X
X
5 fr
         
         
         
         
         
X
X
5 fr
         
         
         
         
         
X
X
3 fr
         
         
         
         
         
X
1
3
4
X
X
8 fr
         
         
         
         
         
1
3
4
X
X
X
10 fr
         
         
         
         
         
X
X
1
3
4
X
3 fr
         
         
         
         
         
X
X

Esus4

variations
         
         
         
         
         
2
3
4
2 fr
         
         
         
         
         
1
2
3
4
4 fr
         
         
         
         
         
3
4
1
2
7 fr
         
         
         
         
         
X
1
3
3
4
1
7 fr
         
         
         
         
         
X
1
1
3
4
1
12 fr
         
         
         
         
         
1
3
3
3
1
1

         
         
         
         
         
         
         
         
         
         
         
         
         
         
         
X
2
3
1
5 fr
         
         
         
         
         
1
3
4
1
1
1
5 fr
         
         
         
         
         
X
X
1
1
1
8 fr
         
         
         
         
         
X
3
2
4
1
2 fr
         
         
         
         
         
X
1
4
4
4
7 fr
         
         
         
         
         
X
1
3
4
2

9 fr
         
         
         
         
         
X
4
3
1
2
X
12 fr
         
         
         
         
         
X
1
3
4
2
1
5 fr
         
         
         
         
         
X
         
         
         
         
         
X
3
2
1
3 fr
         
         
         
         
         
X
1
2
3
4
1
8 fr
         
         
         
         
         
1
3
4
2
1
1
3 fr
         
         
         
         
         
X
1
X
3
4
1
5 fr
         
         
         
         
         
3
2
1
1
1
4
10 fr
         
         
         
         
         
X
X
1
3
4
3

12 fr
         
         
         
         
         
X
4
3
1
2
1
3 fr
         
         
         
         
         
X
         
         
         
         
         
1
1
X
X
X
2 fr
         
         
         
         
         
X
X
1
3
4
X
7 fr
         
         
         
         
         
X
1
3
4
X
X
         
         
         
         
         
X
X
X
7 fr
         
         
         
         
         
X
X
         
         
         
         
         
X
X
1
2
X
5 fr
         
         
         
         
         
X
1
3
4
X
X
10 fr
         
         
         
         
         
1
3
4
X
X
X
         
         
         
         
         
X
1
2
3
5 fr
         
         
         
         
         
1
3
4
2
1
1
2 fr
         
         
         
         
         
X
1
1
1
4
         
         
         
         
         
X
X
1
2
2 fr
         
         
         
         
         
3
2
1
1
1
4
7 fr
         
         
         
         
         
X
X
1
3
4
3

9 fr
         
         
         
         
         
X
4
3
1
2
1
12 fr
         
         
         
         
         
X
1
3
3
3
1

Asus4

variations
         
         
         
         
         
X
1
2
4
2 fr
         
         
         
         
         
X
1
1
2
4
5 fr
         
         
         
         
         
1
3
3
3
1
1
7 fr
         
         
         
         
         
X
1
2
3
4
9 fr
         
         
         
         
         
X
3
4
1
2
X
12 fr
         
         
         
         
         
X
1
3
3
4
1

         
         
         
         
         
X
5 fr
         
         
         
         
         
X
         
         
         
         
         
X
1
1
1
3
         
         
         
         
         
X
1
3
5 fr
         
         
         
         
         
1
3
1
2
1
1
7 fr
         
         
         
         
         
X
1
3
2
4
2 fr
         
         
         
         
         
4
3
1
1
1
2
5 fr
         
         
         
         
         
1
3
1
2
4
1

7 fr
         
         
         
         
         
X
X
1
3
2
4
10 fr
         
         
         
         
         
X
3
2
4
1
12 fr
         
         
         
         
         
X
1
3
3
3
4
         
         
         
         
         
X
X
2
3
1
5 fr
         
         
         
         
         
X
1
3
4
2
1
10 fr
         
         
         
         
         
X
X
1
1
1
5 fr
         
         
         
         
         
X
X
3
2
1
2 fr
         
         
         
         
         
X
4
3
1
2
X
10 fr
         
         
         
         
         
1
3
4
1
1
1

12 fr
         
         
         
         
         
X
X
1
3
4
2
         
         
         
         
         
1
3
4
2
1
1
5 fr
         
         
         
         
         
X
4
3
1
2
1
3 fr
         
         
         
         
         
X
X
1
2
4
3
         
         
         
         
         
X
X
3
2
1
1
8 fr
         
         
         
         
         
X
1
3
3
3
1
10 fr
         
         
         
         
         
4
3
1
1
1
X

10 fr
         
         
         
         
         
3
2
1
1
1
4

Bm

variations
         
         
         
         
         
X
1
3
4
2
1
6 fr
         
         
         
         
         
1
3
4
1
1
1
         
         
         
         
         
X
1
3
4
2
X
6 fr
         
         
         
         
         
X
X
3
1
1
1
8 fr
         
         
         
         
         
X
X
1
3
4
2
10 fr
         
         
         
         
         
X
4
3
1
2
X
         
         
         
         
         
X
X
1
3
2
2 fr
         
         
         
         
         
X
4
3
1
2
1
5 fr
         
         
         
         
         
X
1
2
3
4
1
5 fr
         
         
         
         
         
X
1
4
4
4
X
7 fr
         
         
         
         
         
4
3
1
1
1
X
7 fr
         
         
         
         
         
3
2
1
1
1
4

10 fr
         
         
         
         
         
1
3
4
2
1
1
12 fr
         
         
         
         
         
X
X
1
3
4
3
5 fr
         
         
         
         
         
X
X

B5

variations
         
         
         
         
         
X
1
3
4
X
X
6 fr
         
         
         
         
         
1
3
4
X
X
X
8 fr
         
         
         
         
         
X
X
1
3
4
X
6 fr
         
         
         
         
         
X
X
         
         
         
         
         
1
3
4
X
X
X
3 fr
         
         
         
         
         
X
X
1
3
4
X
8 fr
         
         
         
         
         
X
1
3
4
X
X
         
         
         
         
         
X
X

B

variations
         
         
         
         
         
X
1
2
3
4
1
6 fr
         
         
         
         
         
1
3
4
2
1
1
         
         
         
         
         
X
1
4
4
4
X
         
         
         
         
         
X
1
X
3
4
1
3 fr
         
         
         
         
         
3
2
1
1
1
4
8 fr
         
         
         
         
         
X
X
1
3
4
3

10 fr
         
         
         
         
         
X
4
3
1
2
1

Dsus2

variations
         
         
         
         
         
X
X
3
4
2 fr
         
         
         
         
         
X
3
1
1
2
4
2 fr
         
         
         
         
         
X
2
1
1
3
4
5 fr
         
         
         
         
         
X
1
3
4
1
1
7 fr
         
         
         
         
         
4
1
1
1
X
X
9 fr
         
         
         
         
         
X
X
3
1
2
4
No chord
Half step down guitar tuning:
D#
G#
C#
F#
A#
D#
No capo

C5/A : 4466xx

B+ : x1333x B5+ | 688xxx

Intro

Em G x9

Verse 1

EmI nGeed an eEmasy frienGd, I dEmo, Gwith an Emear to lenGd, I Emdo, Gthink you Emfit this shoGe, I Emdo, Gbut you haEmve a cluGe.

Chorus

C5 I'll C5takeG5 advaF5ntage while C5 you hC5ang G5me oF5ut to dry, but EI can't see you A5every nC5ight EmFree____G__ Em G EmI do_G_ Em G

Verse 2

EmI'm stanGding in yEmour linGe, I Emdo Ghope you hEmave the timGe, I dEmo GPick a nEmumber tGo, I dEmo Gkeep a daEmte with yoGu.

Chorus 2

C5 I'll C5takeG5 advaF5ntage while C5 you hC5ang G5me oF5ut to dry, but EI can't see you A5every nC5ight EmFree____G__ Em G EmI do_G_ Em G

Solo

-|-----------------------------------------------|-
-|-----------------------------------------------|-
-|-----------------------------------12--12--12--|- x4
-|-----------5--7---9--9--9--12--12--------------|-
-|-----5--7--------------------------------------|-
-|--0--------------------------------------------|-

Interlude

C5 C5 G5 F5 C5 C5 G5 B5

E A5 C5

Em G x4

Verse 3

EmI nGeed an eEmasy frienGd, I dEmo, Gwith an Emear to lenGd, I Emdo, Gthink you Emfit this shoGe, I Emdo, Gbut you haEmve a cluGe. CHORUS 3/OUTRO: C5 I'll C5takeG5 advaF5ntage while C5 you hC5ang G5me oF5ut to dry, but EI can't see you A5every nC5ight, Ebut I can't see A5you eveC5ry night EmFree__G______Em_____G EmI do_G_______Em____ G EmI do__G______Em_____G_
INTRO/MAIN RIFF:
-|-------------------------------------------|-
-|-------------------------------------------|-
-|-------------------------------------------|-
-|-------------------------------------------|- x4
-|--------------0---0-----------2---------2--|-
-|--0--0--1--2----2----2--1--0-----0--0------|-

Verse 1

use the intro/main riff): Come as you are, as you were, as i want you to be, AS a friend, as a friend as an old memory

Verse 2

Use the intro/main riff): Take your time, hurry up, the choice is yours, take a rest, as a friend, As an old memory__________

Chorus 1

Esus4_______________G_ Memory____Esus4____________G_____ Memory__Esus4___________ G Memory_Esus4___________ G

Verse 3

use the intro/main riff): Come doused in mud, served in bleach, as i want you to be. As a trend, as a friend, as an old memory__________

Chorus 2

Esus4_______________G_ Memory____Esus4____________G_____ Memory__Esus4___________ G Memory_Esus4___________ G

Bridge

Am Well, I swCear that i doAmn't have a gun, C No, I doAmn't have a gun, C No i dAmon't have a gun_______C___

Solo

-|-------------------------------------------|-
-|-------------------------------------------|-
-|-------------------------------------------|-
-|-------------------------------------------|- x2
-|--------------0---0-----------2---------2--|-
-|--0--0--1--2----2----2--1--0-----0--0------|-
-|--------------|----------------|-----------------------------------|-
-|--------------|----------------|-----------------------------------|-
-|-6--6/8/10-10-|--6--6/8/10--10-|--6--6/8/10-10/12-12-12-10-10-10-8-|-x5
-|--------------|----------------|-----------------------------------|-
-|--------------|----------------|-----------------------------------|-
-|--------------|----------------|-----------------------------------|-

Chorus 3

Esus4Meia___________G_____ MemoryEsus4____________G_________ Memory__Esus4___________ G Memory_Esus4___________ G Memory__Esus4___________ G

Bridge

Am Well, I swCear that i doAmn't have a gun, C No, I doAmn't have a gun, C No i dAmon't have a gun_______C___ No, I doAmn't have a gun, C No i dAmon't have a gun_______C___ No, I doAmn't have a gun, C

Outro

-|-------------------------------------------|-
-|-------------------------------------------|-
-|-------------------------------------------|-
-|-------------------------------------------|- x5
-|--------------0---0-----------2---------2--|-
-|--0--0--1--2----2----2--1--0-----0--0------|-
Memory___________ Memory____________

Intro

E5 D5 A Asus4 A x2

Verse 1

E5 D5 A Asus4 A x4

Chorus 1

E5 D5 x3

A Asus4 A

Verse 2

E5 D5 A Asus4 A x4

Chorus 2

E5 D5 x3

A Asus4 A

Instrumental

E5 D5 A Asus4 A x2

Chorus 3

E5 D5 x3

A Asus4 A

Verse 3

E5 D5 A Asus4 A x4

Chorus 4

E5 D5 x3

A Asus4 A

INSTRUMENTAL/OUTRO:

E5 D5 A Asus4 A x2

Intro

e|-----------------------------------------|
B|-----------------------------------------|
G|-2--2--2--0--2h3p2--0--------------------| repeat 6 times THEN
D|-----------------------------------------|
A|-----------------------------------------|
E|-----------------------------------------|
e|--------|
B|--------|
G|-2------| <---Let Ring
D|--------|
A|--------|
E|--------|

Verse 1

We passed upon the stair.__A7__ We spoke of was___ and when, Dm although I wasn't there.__A7__ He said i was___ his friend F which came as a surprise.__C_____ I spoke into his eyAes. I thought you died alDmone,______ a long, long time a go__C__

Chorus 1

COh, no___ not me,__F__ I nBmever lost control,_F__ Your face_C__ to face__F___ with the BmMan who sold the world.
e|-----------------------------------------|
B|-----------------------------------------|
G|-2--2--2--0--2h3p2--0--------------------| repeat 6 times THEN
D|-----------------------------------------|
A|-----------------------------------------|
E|-----------------------------------------|
e|--------|
B|--------|
G|-2------| <---Let Ring
D|--------|
A|--------|
E|--------|

Verse 2

I laughed and shook his hand, A7 made my way back home. Dm I searched for form and land,A7 for years and years i roamed. F I gazed a gazely stare, C we marched a million hilAls. I must have died aloDmne, a long, long time ago. C

Chorus 2

CWho knows?___ Not me,__F_ I Bmnever lost control._F__ Your face,_C___ to face__F___ with the BmMan who sold the world.
e|-----------------------------------------|
B|-----------------------------------------|
G|-2--2--2--0--2h3p2--0--------------------| repeat 4 times THEN
D|-----------------------------------------|
A|-----------------------------------------|
E|-----------------------------------------|

Chorus 3

CWho knows?___ Not me,__F_ I Bmnever lost control._F__ Your face,_C___ to face__F___ with the BmMan who sold the world.
e|-----------------------------------------|
B|-----------------------------------------|
G|-2--2--2--0--2h3p2--0--------------------| repeat 7 times THEN
D|-----------------------------------------|
A|-----------------------------------------|
E|-----------------------------------------|
              2:47
e|--------------------------------------------------------|
B|--------------------------------------------------------|
G|-2--2--2--0--2/10~-10-10-10-10-10-10-10-10-10-10-10-10--|
D|--------------------------------------------------------|
A|--------------------------------------------------------|
E|--------------------------------------------------------|
e|-----------------------------------------|
B|-----------------------------------------|
G|-2--2--2--0--2h3p2--0--------------------|
D|-----------------------------------------|
A|-----------------------------------------|
E|-----------------------------------------|
           2:56
e|-------------------------------------------------------------------------
B|-------------------------------------------------------------------------
G|2-2-2-0-2h3/10-10-10-10-10-10-10-10-10\9-9\7-7-7-7-7-7-7-7-7/9-9-9-9-9-9-
D|-------------------------------------------------------------------------
A|-------------------------------------------------------------------------
E|-------------------------------------------------------------------------
 ||Carried On Below...
e|----------|
B|----------|
G|9-9-9-9-9-|
D|----------|
A|----------|
E|----------|
e|-----------------------------------------|
B|-----------------------------------------|
G|-2--2--2--0--2h3p2--0--------------------|
D|-----------------------------------------|
A|-----------------------------------------|
E|-----------------------------------------|
           3:12
e|-------------------------------------------------------------------
B|-------------------------------------------------------------------
G|2-2-2-0--2h3/10-10-10-10-10-10-10-10-10\9~\7-7-7-7-7-7-7-7-7/9-9-9-
D|-------------------------------------------------------------------
A|-------------------------------------------------------------------
E|-------------------------------------------------------------------
 ||Carried On Below...
e|---------------|
B|---------------|
G|9-9-9-9-9-9-9-9|
D|---------------|
A|---------------|
E|---------------|
e|-----------------------------------------|
B|-----------------------------------------|
G|-2--2--2--0--2h3p2--0--------------------| repeat 2 times THEN
D|-----------------------------------------|
A|-----------------------------------------|
E|-----------------------------------------|
e|--------|
B|--------|
G|-2------| <---Let Ring
D|--------|
A|--------|
E|--------|
After each G play: E|-2-3-0-|

G

Work out the timing/strumming yourself; Kurt strummed/picked the verses then strummed the chorus. It would be stupid to tab out each pick, just listen to the song and work it out.

Intro

Am G Am G

AmIm on, my time, with Geveryone, AmI have, very, bad Gposture, C5 Sit and drinD5k pennyroyal tB5ea__________________ C5 Distill the lifD5e thats inside of mB5e___________ C5 Sit and drinD5k pennyroyal tB5ea__________________ C5 Im anemD5ic royalB5ty_____________________________ AmGive me lenard cohen Gafterward AmSo i, can sigh Geternally C5 Im so tired D5i can't sleB5ep______________________ C5 Im aD5nemic royaltB5y______________________________ C5 Im a liaD5r and a tB5hief__________________________ C5 Im D5anemic royalB5ty______________________________ Lem Amon, warm milk and laxGatives AmCherry-flavored antaGcids C5 Sit and drinD5k pennyroyal tB5ea__________________ C5 Distill the lD5ife thats inside ofB5 me___________ C5 Sit and drinD5k pennyroyal tB5ea__________________ C5 ImD5 anemic royalB5ty_____________________________

Outro

After each verse before the chorus play the following,
e|--------------|-
B|--------------|-
G|--------------|-
D|--------------|-
A|--------------|-
E|--/7-7--5\3---|-
INTRO/VERSES:
e|---------------------------|----------------------------------|-
B|---------------------2-----|---------------------------5------|-
G|-------2-------------2-----|------5--------------------5------|-
D|-------2---------2---------|------5--------------5------------|-
A|-2-----------0-------------|--5------------3------------------|-
E|-0--------0-------------0--|--3--------0-------------------0--|-

Verse 1

Use intro/verses tab): Im not like them, But i can pretend, the sun has gone, but i have a light, the day's done, but im having fun, I think im dumb...

Chorus 1

...Or maybe just Esus4hap-py. G Think im just____ E5hap-py. G Think im just E5hap-py. G Think im just E5hap-py

Verse 2

Use intro/verses tab): My heart is broke, but i have some glue, help me inhale, mend it with you, we'll float around and hang out on clouds, then we'll come down...

Chorus 2

Have a hang E5over G And Have a hang E5over G Have a hang E5over G Have a hang E5over G Have a hang E5over G

Bridge

B Skin the sun____________C_ Fall asleep. B Wish away,______________C soul is cheap. B Lesson learned,_________C Wish me luck. B Soothe the burn,________C_ Wake me up._____

Verse

Use intro/verses tab): Im not like them, but i can pretend, the sun has gone, but i have a light, the days done and im having fun, I think im dumb.... CHORUS/OUTRO: ....Maybe just E5happy. G I think im just___ E5happy. G I think im just___ hapE5py. G I think im just___ hapE5py. G E5 A5I think im dumb.__G5_ IC5 think im dumb.__E5_ A5I think im dumb.__G5_ C5I think im dumb.__E5_ A5I think im dumb.__G5_ IC5 think im dumb.___E5 A5I think im dumb.__G5_ C5I think im dumb.__E5_ A5I think im dumb._G5__ C5I think im dumb.___E5 A5I think im dumb._G5__ C5I think im dumb.___

Intro

Em G5 D C5 Em G5 D C5

Verse 1

Em PoG5lly wants a crDackC5er Em tG5hink i should get oDff here fiC5rst. Em ThGinks she wants some DwateC5r Em G5to put out the bDlowtorCch.

Chorus 1

D IC5sn't me G5 have B5some seed D LC5et me clip G5 diB5rty wings D LC5et me take a rG5ide huB5rt yourself D WaC5nt some help? G5 B5help myself D GC5ot some rope G5 havB5e been told D PrC5omise you G5 havB5e been true D LC5et me take a rG5ide huB5rt yourself D WaC5nt some help? G5 helB5p my self

Verse 2

Em G5 D C5 Em G5 D C5

Em PoG5lly wants a crDackC5er, Em maG5ybe she would liDke more foC5od. Em AG5sk me to uDntie hC5er, Em chG5ase would be pritty nDice for a fC5ew.

Chorus 2

D IC5sn't me G5 have B5some seed D LC5et me clip G5 diB5rty wings D LC5et me take a rG5ide huB5rt yourself D WaC5nt some help? G5 B5help myself D GC5ot some rope G5 havB5e been told D PrC5omise you G5 havB5e been true D LC5et me take a rG5ide huB5rt yourself D WaC5nt some help? G5 helB5p my self

Interlude

Kurt mutes all the strings and picks them, pick the low ones first then pick the high ones.

Verse 3

Polly said... Em PoG5lly say's her baDck hurC5ts, Em shG5es just as boDred as C5me. Em SG5he caught me oDff my guC5ard, Em 'maG5zes me the wiDll move insC5tinct.

Verse 1

D I'll starGt this off F5 withE5out any words. D I gotG so high F5 I scratE5ched 'till i bled. D loveC myself B Abetter than you. D I knowG its wrongF5 but wE5hat should I do? D The finGest day F5 that i'vE5e ever had. D Was wheGn I learnedF5 to crE5y on command. D loveC myself B Abetter than you. D I knowG its wrongF5 but wE5hat should I do?

Chorus 1

D G D Im on a plain_____G F D I can't complain__G_____ F D Im on a plain_____

Verse 2

D My Gbrother died F5 eveE5ry night. D ItGs safe to sayF5 quotE5e me on that. D loveC myself B Abetter than you. D I knowG its wrongF5 but wE5hat should I do? D TheG black sheep gotF5 blackmE5ailed again. D ForgoGt to put F5 on thE5e zipcode. D loveC myself B Abetter than you. D I knowG its wrongF5 but wE5hat should I do?

Chorus 2

D G D Im on a plain_____G F D I can't complain__G_____ F D Im on a plain_____

Bridge

F5 Somewhere I hE5ave heard this befA5ore________ G5 F5 In a drE5eam my memory has storeA5d___________ G5 F5 As defenE5ce im neutered and spaA5yed_________ G5 F5 What the E5hell am i trying to saA5y?_________ G5

Verse 3

D It iGs now time F5 to make E5it unclear. D To wGrite off linesF5 that don'tE5 make sence. D loveC myself B Abetter than you. D I knowG its wrongF5 but wE5hat should I do? D AndG one more special F5 messagE5e to go. D TheGn im done F5 and i canE5 go home. D I knowG its wrongF5 but wE5hat should I do?

Chorus 3

D G D Im on a plain____G_ F D I can't complain_____G__ F D Im on a plain____G_ F D I can't complain_____G__ F D Im on a plain_______G__ F

Intro

|------------------------------------------------------------------|
|------------------------------------------------------------------|
|------------------------------------------------------------------|
|------------------------------------------------------------------|
|-----3------3---------0---0------------3-----3------------0---0---|
|--3-----3-----3----0----0---0----3--3-----3-----3----0--0---0---0-|

Verse 1

 Underneath  the  bridge       Tarp has sprung a  leak,  and the
|------------------------------------------------------------------|
|------------------------------------------------------------------|
|------------------------------------------------------------------|
|------------------------------------------------------------------|
|------3----3--------0---0----------3----3-----------0----0--------|
|-3-3-----3---3----0---0---0----3-3----3---3----0-0----0----0------|
  animals i've   trapped      all become my   pets,    and im
|------------------------------------------------------------------|
|------------------------------------------------------------------|
|------------------------------------------------------------------|
|------------------------------------------------------------------|
|------3----3--------0---0----------3----3-----------0----0--------|
|-3-3-----3---3----0---0---0----3-3----3---3----0-0----0----0------|
 living off of  grass, and the drippings from the ceiling,
|------------------------------------------------------------------|
|------------------------------------------------------------------|
|------------------------------------------------------------------|
|------------------------------------------------------------------|
|------3----3--------0---0----------3----3-----------0----0--------|
|-3-3-----3---3----0---0---0----3-3----3---3----0-0----0----0------|
  its OK  to eat  fish,  'cause they  don't have any feelin'.
|------------------------------------------------------------------|
|------------------------------------------------------------------|
|------------------------------------------------------------------|
|------------------------------------------------------------------|
|------3----3--------0---0----------3----3-----------0----0--------|
|-3-3-----3---3----0---0---0----3-3----3---3----0-0----0-----------|

Chorus

         Something in the way___
|-----------------------------------------------------------|
|-----------------------------------------------------------|
|-3--3----6---6--6--6--6---7---7--7--7--7-------------------|
|-3--3----4---4--4--4--4---7---7--7--7--7-------------------|
|-1--1----4---4--4--4--4---5---5--5--5--5-------------------|
|---------4---4--4--4--4------------------------------------|

B5 D5

 MMMmmmmmmm______________________
|----------------------------------------------------------|
|----------------------------------------------------------|
|-6---6--6--6--6---7---7--7--7--7--------------------------|
|-4---4--4--4--4---7---7--7--7--7--------------------------|
|-4---4--4--4--4---5---5--5--5--5--------------------------|
|-4---4--4--4--4-------------------------------------------|

D5

  Something in the way___   Yeah
|----------------------------------------------------------|
|----------------------------------------------------------|
|-6---6--6--6--6---7---7--7--7--7--------------------------|
|-4---4--4--4--4---7---7--7--7--7--------------------------|
|-4---4--4--4--4---5---5--5--5--5--------------------------|
|-4---4--4--4--4-------------------------------------------|

D5

 MMMmmmmmmm______________________
|----------------------------------------------------------|
|----------------------------------------------------------|
|-6---6--6--6--6---7---7--7--7--7--------------------------|
|-4---4--4--4--4---7---7--7--7--7--------------------------|
|-4---4--4--4--4---5---5--5--5--5--------------------------|
|-4---4--4--4--4-------------------------------------------|

D5

  Something in the way___   Yeah
|----------------------------------------------------------|
|----------------------------------------------------------|
|-6---6--6--6--6---7---7--7--7--7--------------------------|
|-4---4--4--4--4---7---7--7--7--7--------------------------|
|-4---4--4--4--4---5---5--5--5--5--------------------------|
|-4---4--4--4--4-------------------------------------------|

D5

 MMMmmmmmmm______________________
|----------------------------------------------------------|
|----------------------------------------------------------|
|-6---6--6--6--6---7---7--7--7--7--------------------------|
|-4---4--4--4--4---7---7--7--7--7--------------------------|
|-4---4--4--4--4---5---5--5--5--5--------------------------|
|-4---4--4--4--4-------------------------------------------|

D5

  Something in the way___   Yeah
|----------------------------------------------------------|
|----------------------------------------------------------|
|-6---6--6--6--6---7---7--7--7--7--------------------------|
|-4---4--4--4--4---7---7--7--7--7--------------------------|
|-4---4--4--4--4---5---5--5--5--5--------------------------|
|-4---4--4--4--4-------------------------------------------|

D5

 MMMmmmmmmm______________________
|----------------------------------------------------------|
|----------------------------------------------------------|
|-6---6--6--6--6---7---7--7--7--7--------------------------|
|-4---4--4--4--4---7---7--7--7--7--------------------------|
|-4---4--4--4--4---5---5--5--5--5--------------------------|
|-4---4--4--4--4-------------------------------------------|

D5

Verse 2

  Underneath the bridge       Tarp has sprung a leak, and the
|--------------------------------------------------------------|
|--------------------------------------------------------------|
|--------------------------------------------------------------|
|--------------------------------------------------------------|
|----3----3-----------0----0------3----3------------0----0-----|
|--3---3----3----0-0----0------3----3-----3----0-0----0--------|
  animals i've trapped         all become my pets, and im
|--------------------------------------------------------------|
|--------------------------------------------------------------|
|--------------------------------------------------------------|
|--------------------------------------------------------------|
|----3----3-----------0----0------3----3------------0----0-----|
|--3---3----3----0-0----0------3----3-----3----0-0----0--------|
 living off of grass, and the  drippings from the ceiling
|--------------------------------------------------------------|
|--------------------------------------------------------------|
|--------------------------------------------------------------|
|--------------------------------------------------------------|
|----3----3-----------0----0------3----3------------0----0-----|
|--3---3----3----0-0----0------3----3-----3----0-0----0-----0--|
  its ok to eat fish 'cause they don't have any feelings
|----------------------------------------------------------------|
|----------------------------------------------------------------|
|----------------------------------------------------------3--3--|
|----------------------------------------------------------3--3--|
|----3----3-----------0----0------3----3------------0------1--1--|
|--3---3----3----0-0----0------3----3-----3----0-0----0----------|

Chorus 2

  Something in the way___   Yeah
|----------------------------------------------------------|
|----------------------------------------------------------|
|-6---6--6--6--6---7---7--7--7--7--------------------------|
|-4---4--4--4--4---7---7--7--7--7--------------------------|
|-4---4--4--4--4---5---5--5--5--5--------------------------|
|-4---4--4--4--4-------------------------------------------|

D5

 MMMmmmmmmm______________________
|----------------------------------------------------------|
|----------------------------------------------------------|
|-6---6--6--6--6---7---7--7--7--7--------------------------|
|-4---4--4--4--4---7---7--7--7--7--------------------------|
|-4---4--4--4--4---5---5--5--5--5--------------------------|
|-4---4--4--4--4-------------------------------------------|

D5

  Something in the way___   Yeah
|----------------------------------------------------------|
|----------------------------------------------------------|
|-6---6--6--6--6---7---7--7--7--7--------------------------|
|-4---4--4--4--4---7---7--7--7--7--------------------------|
|-4---4--4--4--4---5---5--5--5--5--------------------------|
|-4---4--4--4--4-------------------------------------------|

D5

 MMMmmmmmmm______________________
|----------------------------------------------------------|
|----------------------------------------------------------|
|-6---6--6--6--6---7---7--7--7--7--------------------------|
|-4---4--4--4--4---7---7--7--7--7--------------------------|
|-4---4--4--4--4---5---5--5--5--5--------------------------|
|-4---4--4--4--4-------------------------------------------|

D5

  Something in the way___   Yeah
|----------------------------------------------------------|
|----------------------------------------------------------|
|-6---6--6--6--6---7---7--7--7--7--------------------------|
|-4---4--4--4--4---7---7--7--7--7--------------------------|
|-4---4--4--4--4---5---5--5--5--5--------------------------|
|-4---4--4--4--4-------------------------------------------|

D5

 MMMmmmmmmm______________________
|----------------------------------------------------------|
|----------------------------------------------------------|
|-6---6--6--6--6---7---7--7--7--7--------------------------|
|-4---4--4--4--4---7---7--7--7--7--------------------------|
|-4---4--4--4--4---5---5--5--5--5--------------------------|
|-4---4--4--4--4-------------------------------------------|

D5

  Something in the way___   Yeah
|----------------------------------------------------------|
|----------------------------------------------------------|
|-6---6--6--6--6---7---7--7--7--7--------------------------|
|-4---4--4--4--4---7---7--7--7--7--------------------------|
|-4---4--4--4--4---5---5--5--5--5--------------------------|
|-4---4--4--4--4-------------------------------------------|

D5

 MMMmmmmmmm______________________
|----------------------------------------------------------|
|----------------------------------------------------------|
|-6---6--6--6--6---7---7--7--7--7--------------------------|
|-4---4--4--4--4---7---7--7--7--7--------------------------|
|-4---4--4--4--4---5---5--5--5--5--------------------------|
|-4---4--4--4--4-------------------------------------------|

D5

  Something in the way___   Yeah
|----------------------------------------------------------|
|----------------------------------------------------------|
|-6---6--6--6--6---7---7--7--7--7--------------------------|
|-4---4--4--4--4---7---7--7--7--7--------------------------|
|-4---4--4--4--4---5---5--5--5--5--------------------------|
|-4---4--4--4--4-------------------------------------------|

D5

 MMMmmmmmmm______________________
|----------------------------------------------------------|
|----------------------------------------------------------|
|-6---6--6--6--6---7---7--7--7--7--------------------------|
|-4---4--4--4--4---7---7--7--7--7--------------------------|
|-4---4--4--4--4---5---5--5--5--5--------------------------|
|-4---4--4--4--4-------------------------------------------|

D5

  Something in the way___   Yeah
|----------------------------------------------------------|
|----------------------------------------------------------|
|-6---6--6--6--6---7---7--7--7--7--------------------------|
|-4---4--4--4--4---7---7--7--7--7--------------------------|
|-4---4--4--4--4---5---5--5--5--5--------------------------|
|-4---4--4--4--4-------------------------------------------|

D5

 MMMmmmmmmm______________________
|----------------------------------------------------------|
|----------------------------------------------------------|
|-6---6--6--6--6---7---7--7--7--7--------------------------|
|-4---4--4--4--4---7---7--7--7--7--------------------------|
|-4---4--4--4--4---5---5--5--5--5--------------------------|
|-4---4--4--4--4-------------------------------------------|

D5

  Something in the way___   Yeah
|----------------------------------------------------------|
|----------------------------------------------------------|
|-6---6--6--6--6---7---7--7--7--7--------------------------|
|-4---4--4--4--4---7---7--7--7--7--------------------------|
|-4---4--4--4--4---5---5--5--5--5--------------------------|
|-4---4--4--4--4-------------------------------------------|

D5

 MMMmmmmmmm______________________
|----------------------------------------------------------|
|----------------------------------------------------------|
|-6---6--6--6--6---7---7--7--7--7--------------------------|
|-4---4--4--4--4---7---7--7--7--7--------------------------|
|-4---4--4--4--4---5---5--5--5--5--------------------------|
|-4---4--4--4--4-------------------------------------------|

D5

  Something in the way___   Yeah
|----------------------------------------------------------|
|----------------------------------------------------------|
|-6---6--6--6--6---7---7--7--7--7--------------------------|
|-4---4--4--4--4---7---7--7--7--7--------------------------|
|-4---4--4--4--4---5---5--5--5--5--------------------------|
|-4---4--4--4--4-------------------------------------------|

D5

 MMMmmmmmmm______________________
|----------------------------------------------------------|
|----------------------------------------------------------|
|-6---6--6--6--6---7---7--7--7--7--------------------------|
|-4---4--4--4--4---7---7--7--7--7--------------------------|
|-4---4--4--4--4---5---5--5--5--5--------------------------|
|-4---4--4--4--4-------------------------------------------|

D5

Intro

-|--3-------6-------3-------6-------3-------6-------1---------------|-
-|-------------------------------------------------------------1----|-
-|------------------------------------------------------0--------0--|-
-|------------------------------------------------------------------|-
-|------------------------------------------------------------------|-
-|--3/------6\------3/------6\------3/------6\------1-------1-------|-
LAST TIME ON INTRO END WITH:
-|-------------1------|-
-|--1-----------------|-
-|------0--------0----|-
-|--------------------|-
-|--------------------|-
-|--1-------1---------|-

Verses

-|--3-------6-------3-------------|-
-|--------------------------6-----|-
-|--------------------------------|-
-|------0-------0-------0-------0-|-
-|----2-------5-------2-------5---|-
-|--3-------6-------3-------6-----|-
END THE VERSES WITH:
-|--4---------------|-
-|------------4-----|-
-|------0-----------|-
-|------------------|-
-|----------3-------|-
-|--4---------------|-

Chorus

-|--3-------3-3------------------------------------------------------|-
-|--------3----------------3-------3-------------------------3-------|-
-|----0--------------------3-------3-------------------------3-------|-
-|----------------3-3------3-------3-------------3-------3-----3-----|-
-|---------------------1-----------------------------1-------------1-|-
-|--3---3----------------------1-------3---3-------------------------|-
-|--------3-------------------------------3--------------------------|-
-|------------3---------3-------3---3---------3--------3-------------|-
-|------0---------------3-------3-------0--------------3-------------|-
-|----0---------3-------3-------3-----0---------3------3-------------|-
-|------------------1-------------------------------1----------------|-
-|--3-----------------------1-------3----------------------1---------|-

Outro

-|--4---------------------4---------6----------------------6\--|-
-|------------4-------4-----------------------6-------6--------|-
-|----------------0-------------0-----------------0------------|-
-|--------------0-------------------------------0--------------|-
-|----------3-------3-------3---------------5-------5----------|-
-|--4-------------------4-----------6--------------------------|-
-|---------------------------------------------------------------0-|-
-|-----2-------0-------3-------0-1-----2-------0-------0-------1---|-
-|---2-------2---2---2-------2-------2-------2---2---2-------2-----|-
-|-2-------2-------0-------0-------2-------2-------3-------0-------|-
-|--------0---------------3---------------0---------------3--------|-
-|-----------------------------------------------------------------|-
Play this bit four times and end with Asus2

Verse

Many a hand has scaled the grand old face of the plateau. Some belong to strangers, and some the folks you know. Holy ghosts and talk-show hosts are planted in the sand. Beautify the foothills, shake the many hands.

Chorus

Nothing on the top but a bucket and a mop, And an illustrated book about birds. See a lot up there, but don't be scared. Who needs action when you got words?

Verse

When you've finished with the mop then you can stop, and look at what you've done. Plateau's clean, no dirt to be seen, and the work, it was fun.

Chorus

Nothing on the top but a bucket and a mop, And an illustrated book about birds. See a lot up there, but don't be scared. Who needs action when you got words?

Verse

Many a hand began to scan around for the next plateau. Some say it was Greenland and some say Mexico. Others decided it was nowhere, except for where they stood. Those were all just guesses, wouldn't help you if they could.

Outro

Mmmmmmmmm______
INTRO/VERSES:

E D D

-|--------------0-|----------------|---------------------| -|--------------0-|--------------3-|--------------3------| -|--------------1-|--------------2-|--------------2--0-0-| -|-------2--2-2---|-------2--0-0-0-|-------2--0-0-0--0-0-| -|---0-2----2-2---|---0-2----0-0---|---0-2----0-0--------| -|-4--------------|-4--------------|-4-------------------|
    C             E
-|------0------|-----0---|-
-|------1--0-0-|-----0---|-
-|------0--0-0-|-----1---|-
-|-2-2---------|--2------|-
-|-3-3---------|--2------|-
-|-------------|--0------|-

Verse 1

Use the INTRO/VERSES tab): if i had to lose a mile, if i had to touch feelings i would lose my soul, the way i do well i dont have to think, I only have to do it the results are always perfect, and that's old news would you like to hear my voice sprinkled/sweetened with emotion invented...at your birth

Chorus

Gwell i can't Esee Gthe end of Eme Gmy whole Eexpance Gi can not Esee i formulate inCfinite D and store it deep inEside of me

Verse 2

Use the INTRO/VERSES tab): if i had to lose a mile, if i had to touch feelings i would lose my soul, the way i do well i dont have to think, i only have to do it the results are always perfect, and that's old news would you like to hear my voice sprinkled/sweetened with emotion invented...at your birth

Chorus 2

Gwell i can't Esee Gthe end of Eme Gmy whole Eexpance Gi can not Esee i formulate inCfinite D and store it deep inEside of me i formulate inCfinite D and store it deep inEside of me

Intro

-|---------------------|-------------------------|-
-|---------------------|-------------------------|-
-|-3--3------------3---|--3--3-------5--5--5--3--|-
-|-5--5----5\3--3--3---|--5--5-x-x-x-5--5--5--3--|-
-|-5--5----5\3--3--1---|--5--5-x-x-x-3--3--3--1--|-
-|-3--3----3\1--1------|--3--3-------------------|-
-|---------------------|-------------------------|-
-|---------------------|-------------------------|-
-|-3--3------------3---|--5--5----5--------------|-
-|-5--5----5\3--3--3---|--5--5----5--3--3--5-----|-
-|-5--5----5\3--3--1---|--3--3----3--3--3--5-----|-
-|-3--3----3\1--1------|-------------1--1--3-----|-
-|---------------------|-------------------------|-
-|---------------------|-------------------------|-
-|-3--3------------3---|--3--3-------------------|-
-|-5--5----5\3--3--3---|--5--5----5--3--3--5-----|-
-|-5--5----5\3--3--1---|--5--5----5--3--3--5-----|-
-|-3--3----3\1--1------|--3--3----3--1--1--3-----|-
-|-----------------------------------------------|-
-|-----------------------------------------------|-
-|--------------------------------3--------------|-
-|--------------------------------1--------------|-
-|-5--5--5--5--5--5--5--5--5--3------5-----------|-
-|-3--3--3--3--3--3--3--3--3--1------3-----------|-
-|---------------------|----11~-11~-11~-11~-11~-11~\-6~-6~/8~--|-
-|---------------------|-/10~-10~-10~-10~-10~-10~--\5~-5~-/7~--|-
-|-3--3------------3---|---------------------------------------|-
-|-5--5----5\3--3--3---|---------------------------------------|-
-|-5--5----5\3--3--1---|---------------------------------------|-
-|-3--3----3\1--1------|---------------------------------------|-

Verse 1

USE THE INTRO TAB): Where do bad folks go when they die? They don't go to heaven where the angels fly. They go to a place of fire and fright. See them again 'till the 4th of July.

Chorus

DmI knew a lBady who caDmme from the lAouve. DmBit badB dog with tChe rabbDmit toDsus2oth. DmShe went tBo her graveDm just a little to sAoon. DmFlew a lBake down oCn the Dmyellow moDsus2on.

Verse 2

USE THE INTRO TAB): Where do bad folks go when they die? They don't go to heaven where the angels fly. They go to a place of fire and fright. See them again 'till the 4th of July.

Chorus 2

DmPeople cBry and Dmpeople mAoan. DmLook for aB dry place Cto calDml their Dsus2home. Sm B Dm A Try to find some place to rest their bones. DmWhile the aBngels and the deCvils try to maDmke them thieDsus2r own.

Verse 3

USE THE INTRO TAB): Where do bad folks go when they die? They don't go to heaven where the angels fly. They go to a place of fire and fright. See them again 'till the 4th of July.
-|----11~-11~-11~-11~-11~-11~\-6~-6~/8~--|-
-|-/10~-10~-10~-10~-10~-10~--\5~-5~-/7~--|-
-|---------------------------------------|- After doing this once
-|---------------------------------------|- do it again.
-|---------------------------------------|-
-|---------------------------------------|-

Solo

-|------3-----------3------------------------------------------
-|--2-3---3---6b/7-------6-------------------------------------
-|-------------------------5-3---------------------------------
-|-----------------------------5-3------------------------3-5--
-|---------------------------------5-4-3------------3-4-5------
-|---------------------------------------6-3------6------------
-|-------------------------------------------------------------
-|-3b/4--------------6~-----6~---------------------------------
-|-3b/4------0--5/7-----7~------7\5--3-------------------------
-|-------5-------------------------------5--------0-3------3---
-|--------------------------------------------/5--------5----5-
-|-------------------------------------------------------------
-|------------------------------------3------------------------
-|-----------------------6~-------/3-----3--7-3----------------
-|------------------5/7------7\-----------------3-5------------
-|--------------------------------------------------3----5-----
-|--3----------------------------------------------------------
-|-----6--3-3-3---------------------------------------3--------
-|-------------------------------------------------------------
-|-3b/4----------3b/4-----3b/4---------------------------------
-|-3b/4----------3b/4-----3b/4---------------------------------
-|------5---5----------5-------5-3---------------------------3-
-|---------------------------------5-4-3--------------3-4-5----
-|---------------------------------------6-3-----3-6-----------
-|-------------------------------------------------------------|-
-|-------------------------------------------------------------|-
-|----------------4--------------------------------------------|-
-|---3h5-------3--------5~-------------------------------------|-
-|-------------------------------------------------------------|-
-|-------------------------------------------------------------|-
eb|---------------------------|----------------2--2--0----|
Bb|---------------------------|------------------------3--|
Gb|--------0-----2--2--0------|---------0-----------------|
Db|-0--4------0--0--------4---|--0---0-----0--------------|
Ab|---------------------------|---------------------------|
Db|---------------------------|---------------------------|
INTRO/VERSE TYPE 2:
eb|-------------------------------|----------------------------------|
Bb|-------------------------------|----------------------------------|
Gb|-------------------------------|----------------------------------|
Db|-------------------------------|--------------10/12--12--10--9----|
Ab|-9--9--10--9--10/12--12--10--9-|-9--9--10--9----------------------|
Db|-------------------------------|----------------------------------|
eb|-------------------------------|----------------------------------|
Bb|-------------------------------|----------------------------------|
Gb|-------------------------------|---------------11--11--9----------|
Db|-------------------------------|--------------------------12------|
Ab|-9--9--10--9--10/12--12--10--9-|-9--9--10--9----------------------|
Db|-------------------------------|----------------------------------|
(YOU COULD PICK THE OPEN STRING 'Db' WHILE PICKING THE 9's AND 12's BUT ON 'UNPLUGGED IN NEW YORK' KURT DOES THE OPEN STRING THING AND PAT SMEAR DOES THE RIFF ABOVE.)

Intro

eb|-------------------------------|----------------------------------|
Bb|-------------------------------|----------------------------------|
Gb|-------------------------------|----------------------------------|
Db|-------------------------------|--------------10/12--12--10--9----|
Ab|-9--9--10--9--10/12--12--10--9-|-9--9--10--9----------------------|
Db|-------------------------------|----------------------------------|
eb|-------------------------------|----------------------------------|
Bb|-------------------------------|----------------------------------|
Gb|-------------------------------|---------------11--11--9----------|
Db|-------------------------------|--------------------------12------|
Ab|-9--9--10--9--10/12--12--10--9-|-9--9--10--9----------------------|
Db|-------------------------------|----------------------------------|
eb|-------------------------------|----------------------------------|
Bb|-------------------------------|----------------------------------|
Gb|-------------------------------|----------------------------------|
Db|-------------------------------|--------------10/12--12--10--9----|
Ab|-9--9--10--9--10/12--12--10--9-|-9--9--10--9----------------------|
Db|-------------------------------|----------------------------------|
eb|-------------------------------|----------------------------------|
Bb|-------------------------------|----------------------------------|
Gb|-------------------------------|---------------11--11--9----------|
Db|-------------------------------|--------------------------12------|
Ab|-9--9--10--9--10/12--12--10--9-|-9--9--10--9----------------------|
Db|-------------------------------|----------------------------------|

Verse 1

    What  else   should   i    be?
eb|-------------------------------|----------------------------------|
Bb|-------------------------------|----------------------------------|
Gb|-------------------------------|----------------------------------|
Db|-------------------------------|--------------10/12--12--10--9----|
Ab|-9--9--10--9--10/12--12--10--9-|-9--9--10--9----------------------|
Db|-------------------------------|----------------------------------|
    All______    Apologies___
eb|-------------------------------|----------------------------------|
Bb|-------------------------------|----------------------------------|
Gb|-------------------------------|---------------11--11--9----------|
Db|-------------------------------|--------------------------12------|
Ab|-9--9--10--9--10/12--12--10--9-|-9--9--10--9----------------------|
Db|-------------------------------|----------------------------------|
    What  else    should  I  say?
eb|-------------------------------|----------------------------------|
Bb|-------------------------------|----------------------------------|
Gb|-------------------------------|----------------------------------|
Db|-------------------------------|--------------10/12--12--10--9----|
Ab|-9--9--10--9--10/12--12--10--9-|-9--9--10--9----------------------|
Db|-------------------------------|----------------------------------|
    Everyone_   is       gay__
eb|-------------------------------|----------------------------------|
Bb|-------------------------------|----------------------------------|
Gb|-------------------------------|---------------11--11--9----------|
Db|-------------------------------|--------------------------12------|
Ab|-9--9--10--9--10/12--12--10--9-|-9--9--10--9----------------------|
Db|-------------------------------|----------------------------------|
    What else    should I write?
eb|-------------------------------|----------------------------------|
Bb|-------------------------------|----------------------------------|
Gb|-------------------------------|----------------------------------|
Db|-------------------------------|--------------10/12--12--10--9----|
Ab|-9--9--10--9--10/12--12--10--9-|-9--9--10--9----------------------|
Db|-------------------------------|----------------------------------|
    I don't__    have the right____
eb|-------------------------------|----------------------------------|
Bb|-------------------------------|----------------------------------|
Gb|-------------------------------|---------------11--11--9----------|
Db|-------------------------------|--------------------------12------|
Ab|-9--9--10--9--10/12--12--10--9-|-9--9--10--9----------------------|
Db|-------------------------------|----------------------------------|
    What  else   should  I  be?
eb|-------------------------------|----------------------------------|
Bb|-------------------------------|----------------------------------|
Gb|-------------------------------|----------------------------------|
Db|-------------------------------|--------------10/12--12--10--9----|
Ab|-9--9--10--9--10/12--12--10--9-|-9--9--10--9----------------------|
Db|-------------------------------|----------------------------------|
    A__l__l______        Apo__log__ies_______
eb|-------------------------------|--------------------------------------|
Bb|-------------------------------|--------------------------------------|
Gb|-------------------------------|---------------11--11--9--------------|
Db|-------------------------------|--------------------------12--5-5-5-5-|
Ab|-9--9--10--9--10/12--12--10--9-|-9--9--10--9------------------5-5-5-5-|
Db|-------------------------------|------------------------------5-5-5-5-|

Chorus

If your guitar is in 1/2 step down tuing use chord 355xxx for chorus:
   G
            In the sun___         in the sun   I feel as one
eb|--------------------------------------------------------------|-
Bb|--------------------------------------------------------------|-
Gb|--------------------------------------------------------------|-
Db|-5-5-5-x--5-5-5-5--------5-5-5-x--5-5-5-5--5-5-5--5-5-5-5-----|-
Ab|-5-5-5-x--5-5-5-5--------5-5-5-x--5-5-5-5--5-5-5--5-5-5-5-----|-
Db|-5-5-5-x--5-5-5-5--------5-5-5-x--5-5-5-5--5-5-5--5-5-5-5-----|-
            In the sun_____,        In the sun__________
eb|--------------------------------------------------------------|-
Bb|--------------------------------------------------------------|-
Gb|--------------------------------------------------------------|-
Db|-5-5-5---5-5-5-5--------5-5-5---5-5-5-5----5-5--5-5-5-5-------|-
Ab|-5-5-5---5-5-5-5--------5-5-5---5-5-5-5----5-5--5-5-5-5-------|-
Db|-5-5-5---5-5-5-5--------5-5-5---5-5-5-5----5-5--5-5-5-5-------|-

Bridge

For this you have to get the pauses right, single note bits might be wrong but i tried to get them accurate, if in doubt just pick random high strings:
   A
   Married___               Buried___
eb|-0---------------------|-0--------------------------|-
Bb|-2----2-------2-----2--|-2---2---2------------------|-
Gb|-2----2-------2-----2--|-2---2----------------------|-
Db|-2---------0-----------|-2----------2----2----------|-
Ab|-0---------0------0----|-0---------------0---0----0-|-
Eb|-----------------------|----------------------------|-

Verse 1

    I wish    I   was  like  you
eb|-------------------------------|----------------------------------|
Bb|-------------------------------|----------------------------------|
Gb|-------------------------------|----------------------------------|
Db|-------------------------------|--------------10/12--12--10--9----|
Ab|-9--9--10--9--10/12--12--10--9-|-9--9--10--9----------------------|
Db|-------------------------------|----------------------------------|
    E__asily__    amused_______
eb|-------------------------------|----------------------------------|
Bb|-------------------------------|----------------------------------|
Gb|-------------------------------|---------------11--11--9----------|
Db|-------------------------------|--------------------------12------|
Ab|-9--9--10--9--10/12--12--10--9-|-9--9--10--9----------------------|
Db|-------------------------------|----------------------------------|
    Find my   nest   of   salt
eb|-------------------------------|----------------------------------|
Bb|-------------------------------|----------------------------------|
Gb|-------------------------------|----------------------------------|
Db|-------------------------------|--------------10/12--12--10--9----|
Ab|-9--9--10--9--10/12--12--10--9-|-9--9--10--9----------------------|
Db|-------------------------------|----------------------------------|
    Everythings_   my   falut__
eb|-------------------------------|----------------------------------|
Bb|-------------------------------|----------------------------------|
Gb|-------------------------------|---------------11--11--9----------|
Db|-------------------------------|--------------------------12------|
Ab|-9--9--10--9--10/12--12--10--9-|-9--9--10--9----------------------|
Db|-------------------------------|----------------------------------|
    I'll  take  all  the  blame
eb|-------------------------------|----------------------------------|
Bb|-------------------------------|----------------------------------|
Gb|-------------------------------|----------------------------------|
Db|-------------------------------|--------------10/12--12--10--9----|
Ab|-9--9--10--9--10/12--12--10--9-|-9--9--10--9----------------------|
Db|-------------------------------|----------------------------------|
    Aqua__ seafoam__   shame___
eb|-------------------------------|----------------------------------|
Bb|-------------------------------|----------------------------------|
Gb|-------------------------------|---------------11--11--9----------|
Db|-------------------------------|--------------------------12------|
Ab|-9--9--10--9--10/12--12--10--9-|-9--9--10--9----------------------|
Db|-------------------------------|----------------------------------|
    Sunburn_  the  freezer  burn_
eb|-------------------------------|----------------------------------|
Bb|-------------------------------|----------------------------------|
Gb|-------------------------------|----------------------------------|
Db|-------------------------------|--------------10/12--12--10--9----|
Ab|-9--9--10--9--10/12--12--10--9-|-9--9--10--9----------------------|
Db|-------------------------------|----------------------------------|
   Cho___king   on   the   a_shes   of    her    enemies______
eb|-------------------------------|--------------------------------------|
Bb|-------------------------------|--------------------------------------|
Gb|-------------------------------|---------------11--11--9--------------|
Db|-------------------------------|--------------------------12----------|
Ab|-9--9--10--9--10/12--12--10--9-|-9--9--10--9--------------------------|
Db|-------------------------------|--------------------------------------|

Chorus

for this either use 555xxx Or 355xxx:
   G
            In the sun___         in the sun   I feel as one
eb|--------------------------------------------------------------|-
Bb|--------------------------------------------------------------|-
Gb|--------------------------------------------------------------|-
Db|-5-5-5-x--5-5-5-5--------5-5-5-x--5-5-5-5--5-5-5--5-5-5-5-----|-
Ab|-5-5-5-x--5-5-5-5--------5-5-5-x--5-5-5-5--5-5-5--5-5-5-5-----|-
Db|-5-5-5-x--5-5-5-5--------5-5-5-x--5-5-5-5--5-5-5--5-5-5-5-----|-
            In the sun_____,        In the sun__________
eb|--------------------------------------------------------------|-
Bb|--------------------------------------------------------------|-
Gb|--------------------------------------------------------------|-
Db|-5-5-5---5-5-5-5--------5-5-5---5-5-5-5----5-5--5-5-5-5-------|-
Ab|-5-5-5---5-5-5-5--------5-5-5---5-5-5-5----5-5--5-5-5-5-------|-
Db|-5-5-5---5-5-5-5--------5-5-5---5-5-5-5----5-5--5-5-5-5-------|-

Bridge

For this you have to get the pauses right, single note bits might be wrong but i tried to get them accurate, if in doubt just pick random high strings:
   A
   Married___                     Buried___            Married__
eb|-0---------------------------|-0---------------------0--------------|-
Bb|-2-------------2------------2|-2--2----2-------------2--------------|-
Gb|-2----2----2---2----2-------2|-2--2----2-------2-----2---------2--2-|-
Db|-2-----------0------2-2---2--|-2------------2--2-----2-------2----2-|-
Ab|-0------0---------------0----|-0----------0----------0--0--0--------|-
Eb|-----------------------------|--------------------------------------|-
    Buried
eb|-0---------------0--0-0-0---0-0-0---0---0---0-----------|-
Bb|-2----2-----2----2--2-2-2---2-2-2---2---2---2-----------|-
Gb|-2----2---2-2----2--2-2-2---2-2-2---2---2---2-----------|-
Db|-2--------2------2--2-2-2---2-2-2---2---2---2-----------|-
Ab|-0---------------0--0-0-0---0-0-0---0---0---0-----------|-
Eb|--------------------------------------------------------|-

Outro

eb|-------------------------------|----------------------------------|
Bb|-------------------------------|----------------------------------|
Gb|-------------------------------|----------------------------------|
Db|-------------------------------|--------------10/12--12--10--9----|
Ab|-9--9--10--9--10/12--12--10--9-|-9--9--10--9----------------------|
Db|-------------------------------|----------------------------------|
eb|-------------------------------|----------------------------------|
Bb|-------------------------------|----------------------------------|
Gb|-------------------------------|---------------11--11--9----------|
Db|-------------------------------|--------------------------12------|
Ab|-9--9--10--9--10/12--12--10--9-|-9--9--10--9----------------------|
Db|-------------------------------|----------------------------------|
      All    in    all    is    all    we   all    are
eb|-------------------------------|----------------------------------|
Bb|-------------------------------|----------------------------------|
Gb|-------------------------------|----------------------------------|
Db|-------------------------------|--------------10/12--12--10--9----|
Ab|-9--9--10--9--10/12--12--10--9-|-9--9--10--9----------------------|
Db|-------------------------------|----------------------------------|
      All    in    all    is    all    we   all    are
eb|-------------------------------|----------------------------------|
Bb|-------------------------------|----------------------------------|
Gb|-------------------------------|---------------11--11--9----------|
Db|-------------------------------|--------------------------12------|
Ab|-9--9--10--9--10/12--12--10--9-|-9--9--10--9----------------------|
Db|-------------------------------|----------------------------------|
      All    in    all    is    all    we   all    are
eb|-------------------------------|----------------------------------|
Bb|-------------------------------|----------------------------------|
Gb|-------------------------------|----------------------------------|
Db|-------------------------------|--------------10/12--12--10--9----|
Ab|-9--9--10--9--10/12--12--10--9-|-9--9--10--9----------------------|
Db|-------------------------------|----------------------------------|
      All    in    all    is    all    we   all    are
eb|-------------------------------|----------------------------------|
Bb|-------------------------------|----------------------------------|
Gb|-------------------------------|---------------11--11--9----------|
Db|-------------------------------|--------------------------12------|
Ab|-9--9--10--9--10/12--12--10--9-|-9--9--10--9----------------------|
Db|-------------------------------|----------------------------------|
      All    in    all    is    all    we   all    are
eb|-------------------------------|----------------------------------|
Bb|-------------------------------|----------------------------------|
Gb|-------------------------------|----------------------------------|
Db|-------------------------------|--------------10/12--12--10--9----|
Ab|-9--9--10--9--10/12--12--10--9-|-9--9--10--9----------------------|
Db|-------------------------------|----------------------------------|
      All    in    all    is    all    we   all    are
eb|-------------------------------|----------------------------------|
Bb|-------------------------------|----------------------------------|
Gb|-------------------------------|---------------11--11--9----------|
Db|-------------------------------|--------------------------12------|
Ab|-9--9--10--9--10/12--12--10--9-|-9--9--10--9----------------------|
Db|-------------------------------|----------------------------------|
    All  in  all  is  all  we all  are
eb|------------------------------------|
Bb|------------------------------------|
Gb|------------------------------------|
Db|------------------------------------|
Ab|-9-------9----9----------9--9--9----|
Db|-0---0---0----0---0---0--0-----0----|
   All in all is all we all are     All in all is all we all are
eb|-------------------------------|-------------------------------|
Bb|-------------------------------|-------------------------------|
Gb|-------------------------------|-------------------------------|
Db|-------------------------------|-------------------------------|
Ab|-9-----9-------9-----9-------9-|-------9-----9-9-9-9--9--------|
Db|-0--0-----0--0----0-----0--0---|-0--0-----0-----------0--0-----|
   All in all is all we all are     All in all is all we all are
eb|-------------------------------|-------------------------------|
Bb|-------------------------------|-------------------------------|
Gb|-------------------------------|-------------------------------|
Db|-------------------------------|-------------------------------|
Ab|-------9-----9-------------9---|-------------------------------|
Db|-0--0-----0-----0--------0-----|-0-----------------------------|
   All in all is all we all are     All in all is all we are
eb|-------------------------------|-------------------------------|
Bb|-------------------------------|-------------------------------|
Gb|-------------------------------|-------------------------------|
Db|-------------------------------|-------------------------------|
Ab|-------------------------------|-------------------------------|
Db|-------------------------------|-------------------------------|
    All in all is all we all are_____
eb|-----------------------------------|
Bb|-----------------------------------|
Gb|-----------------------------------|
Db|-----------------------------------|
Ab|-----------------------------------|
Db|-----------------------------------|
Thats it, all apologies for Unplugged in New York, you will have to listen to the CD for timing and stuff (especially the Married, Buried bits and the outro) People will problem comment and say its inaccurate but im sure its one of the most accurate All Apologies on UG and if you don't like it then Stuff it and you tab it out more accuratly and better :-P Comments, improvments and positive critizism is apreciated and i will be happy to change bits of the tab if you think they are wrong (as long as i think the improvment would sound better aswell)

Intro

      D|-------2---|-
EM    A|-------0---|-     A     G    B+   Em
      E|-0-2-3-----|-
REPEAT THE INTRO TWO TIMES.

Verse 1

Pick the chords/gently strum): EmMy girl, my girl, don'tA lie to Gme Tell me Bwhere did you sleep last Emnight EmIn the pines, in the pines Where the Asun don't ever Gshine I would Bshiver the whole niEmght through

Verse 2

EmMy girl, my girl, where Awill you Ggo I'm Bgoing where the cold wind Emblows EmIn the pines, in the pines Where the Asun don't ever Gshine I would Bshiver the whole Emnight through

Verse 3

EmHer husband, was a Ahard working Gman Just Babout a mile from Emhere EmHis head was found in a Adriving Gwheel BBut his body never was Emfound

Verse 4

EmMy girl, my girl, don'tA lie to Gme Tell me Bwhere did you sleep last Emnight EmIn the pines, in the pines Where the Asun don't ever Gshine I would Bshiver the whole niEmght through

Interlude

Em A G B Em

Em A G B Em

Verse 5

Pick the chords/gently): EmMy girl, my girl, where Awill you Ggo I'm Bgoing where the cold wind Emblows EmIn the pines, in the pines Where the Asun don't ever Gshine I would Bshiver the whole Emnight through

Verse 6

Loudly): EmMy girl, my girl, don'tA lie to Gme Tell me Bwhere did you sleep last Emnight EmIn the pines, in the pines Where the Asun don't ever Gshine I would Bshiver the whole niEmght through_______

Verse 7

EmMy girl, my girl, where Awill ya Ggo I'm Bgoing where the cold wind bEmlows EmIn the pines, the pines The Asun, the Gshine I'll BSHIVER_____________ the whole night Emthrough

Outro

Em A G B Em

Em A G B Em