Oasis - Alive Chords

Verse 1 Riff
Verse 1 Riff
Bridge Riff
Bridge Riff
Chorus Riff
 
         
         
         
         
         
2
3
1
4 fr
         
         
         
         
         
X
4
3
1
2
1
7 fr
         
         
         
         
         
X
1
4
4
4
X
2 fr
         
         
         
         
         
X
X
1
2
4
3
4 fr
         
         
         
         
         
4
3
1
2
1
7 fr
         
         
         
         
         
X
1
3
3
3
1

9 fr
         
         
         
         
         
4
3
1
1
1
X
9 fr
         
         
         
         
         
3
2
1
1
1
4
12 fr
         
         
         
         
         
1
3
4
2
1
1
4 fr
         
         
         
         
         
X

Cm

variations
4 fr
         
         
         
         
         
X
1
3
4
2
1
9 fr
         
         
         
         
         
1
3
4
1
1
1
         
         
         
         
         
X
4
2
1
X
X
         
         
         
         
         
X
4
3
1
2
X
4 fr
         
         
         
         
         
X
1
X
X
2
1
11 fr
         
         
         
         
         
X
X
1
3
4
2

4 fr
         
         
         
         
         
X
X

Fm

variations
         
         
         
         
         
1
3
4
1
1
1
4 fr
         
         
         
         
         
X
X
1
3
4
2
         
         
         
         
         
X
X
3
1
1
1
9 fr
         
         
         
         
         
X
1
3
4
2
1
6 fr
         
         
         
         
         
X
4
3
1
2
X
         
         
         
         
         
X
1
2
3
5 fr
         
         
         
         
         
1
3
4
2
1
1
2 fr
         
         
         
         
         
X
1
1
1
4
         
         
         
         
         
X
X
1
2
2 fr
         
         
         
         
         
3
2
1
1
1
4
7 fr
         
         
         
         
         
X
X
1
3
4
3

9 fr
         
         
         
         
         
X
4
3
1
2
1
12 fr
         
         
         
         
         
X
1
3
3
3
1
7 fr
         
         
         
         
         
1
3
4
2
1
1
         
         
         
         
         
X
2
1
X
3
         
         
         
         
         
X
1
4
4
4
X
         
         
         
         
         
X
1
3
3
3
1
4 fr
         
         
         
         
         
4
3
1
1
1
X
4 fr
         
         
         
         
         
3
2
1
1
1
4

9 fr
         
         
         
         
         
X
X
1
3
4
3
11 fr
         
         
         
         
         
X
4
3
1
2
1
No chord
Standard guitar tuning:
E
A
D
G
B
E
No capo
RIFF FOR INTRO - same as the verse but for the first two times you only play the bit
between the lines, ie; the 6's, 4's and 0's.
e-----------------------------------------------|-----------0------------------------0-------|----
B----------7-----7----7----------------------|--4----------4------------4-----------4------|---
G-----9------9-----9-----9------------------|-----6----------6------------6-----------6--|---
D--9------------------------9--sld down-|-6------------------6------------------------|-6 sld up 9-

Verse

RIFF 1 (play throughout) EThe people will notice that the times are Cmchanging EIt's just for now but not for Cmgood EIt's my feelings that I think you're Cmdraining ESo take them now if you think you Cmshould

Riff 1

e----------------------------------------------------------------0------------------------0----------------------
B----------7-----7----7-----------------------------4----------4------------4-----------4-------------------
G-----9------9-----9-----9----------------------------6----------6------------6-----------------------------
D--9-----------------------------9--sld down--6--------------------6-----------------------6 sld up 9-

Chorus

RIFF 2 (play throughout) FmYou want Asomething for nothing The Ehigher that you climb, the Blonger you fall FmMaybe Ayour time is coming, Ewill you have to climb when you Bfind the wall Is there Fmtime to doubt, is there Atime to wait Will Eyou be left alone at the Bstarting gate? FmI'm not blind and I don't mind cause AI've got time now, I'm aEliAveE

Riff 2

play every chord - cept the E's and A's at the end of the chorus) its
easy if you listen
e-------------------------------------
B------5-----------------------------
G----------6----4-------6----------
D------------------------------------

Verse

Riff 1

EThe people have noticed that the times are Cmchanging EBut are they gonna do something Cmnow EI think I've seen you all hesiCmtating EI think I'll go and do something Cmnow

Chorus

RIFF 2 (play throughout) FmYou want Asomething for nothing The Ehigher that you climb, the Blonger you fall FmMaybe Ayour time is coming, Ewill you have to climb when you Bfind the wall Is there Fmtime to doubt, is there Atime to wait Will Eyou be left alone at the Bstarting gate? FmI'm not blind and I don't mind cause AI've got time now, I'm aEliAveE

Riff 2

play every chord - cept the E's and A's at the end of the chorus) its
easy if you listen
e-------------------------------------
B------5-----------------------------
G----------6----4-------6----------
D------------------------------------
Yeah, I'm aElivAe. E And now I'm aElivAe. E Yeah, I'm aElivAe. E

Outro riff

E E

e---------4-------5----4-----------------------------------4--------5--4---------------------------
B---    5------5--------------5-------------------------5---------5---------5-------------------------
G------------------------------------------------------------------------------------------------------
D------------------------------------------------------------------------------------------------------

E E

e---------4-------5----4-----------------------------------4--------5--4-----------------------------
B---    5------5--------------5-------------------------5---------5---------5----------------------------
G---------------------------------------------------------------------------------------------------------
D---------------------------------------------------------------------------------------------------------
NOW DO THE SAME THING BUT WITH OUT THE BREAK IN BETWEEN ANTOHER 7 times then just play this
      E               Fm                  A                     E                     B
e-----5--4------|-----5--4-------5--4-------5--4-----5--4------5--4------5--4-------5--4------5--4---
B----------------|-------------------------------------------------------------------------------------------------
G----------------|-------------------------------------------------------------------------------------------------
D----------------|------------------------------------------------------------------------------------------------
       Fm                  A                     E                     B
e-----5--4-------5--4-------5--4-----5--4------5--4------5--4-------5--4------5--4--------------
B------------------------------------------------------------------------------------------------------------
G---------------------------------------------------------------------------------------------------------
D---------------------------------------------------------------------------------------------------------
    Fm               A                  E                     B
e---7--5--4--5---------7--5--4--5-------7--5--4--5----------7--5--4--5------
B------------------------------------------------------------------------------------------------------------
G---------------------------------------------------------------------------------------------------------
D---------------------------------------------------------------------------------------------------------
     Fm                      A
e-------------------------------------------------------------------------------------------------------------
B-------5-----7-7-7----5-5---7------5---7------Just fiddle around like this
G----------------------------------------------------
Then E A E E A E E A E E A E