Oasis - The Hindu Times Chords

Main Riff
 
         
         
         
         
         
X
1
2
3
5 fr
         
         
         
         
         
1
3
4
2
1
1
2 fr
         
         
         
         
         
X
1
1
1
4
         
         
         
         
         
X
X
1
2
2 fr
         
         
         
         
         
3
2
1
1
1
4
7 fr
         
         
         
         
         
X
X
1
3
4
3

9 fr
         
         
         
         
         
X
4
3
1
2
1
12 fr
         
         
         
         
         
X
1
3
3
3
1
         
         
         
         
         
X
X
1
3
2
2 fr
         
         
         
         
         
X
4
3
1
2
1
5 fr
         
         
         
         
         
X
1
2
3
4
1
5 fr
         
         
         
         
         
X
1
4
4
4
X
7 fr
         
         
         
         
         
4
3
1
1
1
X
7 fr
         
         
         
         
         
3
2
1
1
1
4

10 fr
         
         
         
         
         
1
3
4
2
1
1
12 fr
         
         
         
         
         
X
X
1
3
4
3
5 fr
         
         
         
         
         
X
X
         
         
         
         
         
2
3
1
4 fr
         
         
         
         
         
X
4
3
1
2
1
7 fr
         
         
         
         
         
X
1
4
4
4
X
2 fr
         
         
         
         
         
X
X
1
2
4
3
4 fr
         
         
         
         
         
4
3
1
2
1
7 fr
         
         
         
         
         
X
1
3
3
3
1

9 fr
         
         
         
         
         
4
3
1
1
1
X
9 fr
         
         
         
         
         
3
2
1
1
1
4
12 fr
         
         
         
         
         
1
3
4
2
1
1
4 fr
         
         
         
         
         
X
         
         
         
         
         
X
3
2
1
3 fr
         
         
         
         
         
X
1
2
3
4
1
8 fr
         
         
         
         
         
1
3
4
2
1
1
3 fr
         
         
         
         
         
X
1
X
3
4
1
5 fr
         
         
         
         
         
3
2
1
1
1
4
10 fr
         
         
         
         
         
X
X
1
3
4
3

12 fr
         
         
         
         
         
X
4
3
1
2
1
3 fr
         
         
         
         
         
X
         
         
         
         
         
1
3
4
2
1
1
5 fr
         
         
         
         
         
X
4
3
1
2
1
3 fr
         
         
         
         
         
X
X
1
2
4
3
         
         
         
         
         
X
X
3
2
1
1
8 fr
         
         
         
         
         
X
1
3
3
3
1
10 fr
         
         
         
         
         
4
3
1
1
1
X

10 fr
         
         
         
         
         
3
2
1
1
1
4
         
         
         
         
         
X
X
3
2
1
3 fr
         
         
         
         
         
X
X
1
4
4
4
         
         
         
         
         
1
X
3
4
2
X
         
         
         
         
         
1
4
2
3
1
1
8 fr
         
         
         
         
         
X
1
3
2
4
1
         
         
         
         
         
1
4
3
2

5 fr
         
         
         
         
         
X
4
3
1
1
1
         
         
         
         
         
X
         
         
         
         
         
         
         
         
         
         
3
2
4
3 fr
         
         
         
         
         
1
3
4
2
1
1
         
         
         
         
         
2
1
3
4
3 fr
         
         
         
         
         
X
X
3
2
1
1
5 fr
         
         
         
         
         
X
X
1
3
4
3
7 fr
         
         
         
         
         
X
4
3
1
2
1

10 fr
         
         
         
         
         
X
1
2
3
4
X
10 fr
         
         
         
         
         
X
1
3
3
3
1
12 fr
         
         
         
         
         
3
2
1
1
1
4
No chord
Standard guitar tuning:
E
A
D
G
B
E
Capo on 2 fret
A = x02220 D = xx0232 E = 022100 C = x32010 F = 133211 or F7M = x33210 G = 320003 or 320033

Riff 1

e|--------------------------|
B|--------------------------|
G|-8h9-8b9-----8h9-11-9-8b9-|
D|---------9-9--------------|
A|--------------------------|
E|--------------------------|

Riff 2

e|---------------------|
B|---------------------|
G|-8h9-8b9-----8h9-8b9-|
D|---------9-9---------|
A|---------------------|
E|---------------------|

Intro

e|-----------------------------------------------|
B|-----------------------------------------------|
G|-8h9-8b9-----8h9-11-9-8b9--8h9-8b9-------------|
D|---------9-9-----------------------9-9-7-7-9-9-|
A|-----------------------------------------------|
E|-----------------------------------------------|

A D x2

Verse 1

AI get up, when I'm down I can't swim, Dbut my soul won't drown I do bAelieve, I got flair I got speed, and I Dwalk on air A

Chorus

DCos God gave me soul, A *Riff 1* in your rock n roll babe DCos God gave me soul, A *Riff 1* In your rock n roll babe And I Eget so high, D A *Riff 2* I just can't feel it And I Eget so high, D *Riff 2* I just can't feel it CIn and out my Dbrain, Running through my Fveins You're my Gsunshine, You're my Arain
e|-----------------------------------------------|
B|-----------------------------------------------|
G|-8h9-8b9-----8h9-11-9-8b9--8h9-8b9-------------|
D|---------9-9-----------------------9-9-7-7-9-9-|
A|-----------------------------------------------|
E|-----------------------------------------------|

A D x2

Verse 2

There's a Alight that shines on Shines on me, And it keeps me Dwarm It gives me pAeace, I must say I can't sleep, Cos the Dworld won't wait A

Chorus

DCos God gave me soul, A *Riff 1* in your rock n roll babe DCos God gave me soul, A *Riff 1* In your rock n roll babe And I Eget so high, D A *Riff 2* I just can't feel it And I Eget so high, D *Riff 2* I just can't feel it CIn and out my Dbrain, Running through my Fveins You're my Gsunshine, You're my Arain

Solo

D          A

A

e|------------------------------------------------| B|------------------------------------------------| G|-8h9-8b9-----8h9-11-9-8b9--8h9-8b9--------------| D|---------9-9------------------------9-9-7-7-9-9-| A|------------------------------------------------| E|------------------------------------------------|
   D
e|-------------------------------------|
B|-13h14-13b14-------13h14-16-14-13b14-|
G|-------------13-13-------------------|
D|-------------------------------------|
A|-------------------------------------|
E|-------------------------------------|
   A
e|--------------------------|
B|--------------------------|
G|-8h9-8b9-----8h9-11-9-8b9-|
D|---------9-9--------------|
A|--------------------------|
E|--------------------------|
   D
e|-------------------------------------|
B|-13h14-13b14-------13h14-16-14-13b14-|
G|-------------13-13-------------------|
D|-------------------------------------|
A|-------------------------------------|
E|-------------------------------------|
   A
e|--------------------------|
B|--------------------------|
G|-8h9-8b9-----8h9-11-9-8b9-|
D|---------9-9--------------|
A|--------------------------|
E|--------------------------|

Chorus

E D A *Riff 2* And I get so high, I just can't feel it E D A *Riff 2* And I get so high, I just can't feel it E D A *Riff 2* And I get so high, I just can't feel it EAnd I get so high, I Djust can't feel it CIn and out my Dbrain, and running through my Fveins You're my Gsunshine, you're my Arain

Outro

  A                                  D
e|-----------------------------------------------|
B|-----------------------------------------------|
G|-8h9-8b9-----8h9-11-9-8b9--8h9-8b9-------------|
D|---------9-9-----------------------9-9-7-7-9-9-|
A|-----------------------------------------------|
E|-----------------------------------------------| x2 then end on A