Of Monsters And Men - Numb Bears Chords

 
         
         
         
         
X
1
2
3
5 fr
         
         
         
         
1
3
4
2
1
1
2 fr
         
         
         
         
X
1
1
1
4
         
         
         
         
X
X
1
2
2 fr
         
         
         
         
3
2
1
1
1
4
7 fr
         
         
         
         
X
X
1
3
4
3

9 fr
         
         
         
         
X
4
3
1
2
1
12 fr
         
         
         
         
X
1
3
3
3
1
         
         
         
         
X
1
3
4
2
1
7 fr
         
         
         
         
1
3
4
1
1
1
         
         
         
         
X
1
3
4
2
X
7 fr
         
         
         
         
X
X
3
1
1
1
9 fr
         
         
         
         
X
X
1
3
4
2
11 fr
         
         
         
         
X
4
3
1
2
X
No chord
Standard guitar tuning:
E
A
D
G
B
E
No capo

Intro

E|---------------9-12-14-12-9-------------------------------9-12-14-12-9-----------------------|
B|--------10--10---------------12---12-h14-12------9--10--10---------------12------------------|
G|---------------------------------------------------------------------------------------------|
D|---------------------------------------------------------------------------------------------|
A|---------------------------------------------------------------------------------------------|
E|---------------------------------------------------------------------------------------------|
          A                    Bm                     A                    Bm
E|---------------9-12-14-12-9-------------------------------9-12-14-12-9-------14--12--9-------|
B|--------10--10---------------12---12-h14-12------9--10--10---------------12--------------10--|
G|---------------------------------------------------------------------------------------------|
D|---------------------------------------------------------------------------------------------|
A|---------------------------------------------------------------------------------------------|
E|---------------------------------------------------------------------------------------------|
AFishing for a friend, Can't reBmmember when it was Adark Or the sun coming Bmup. AFar across the ocean aBmlone, While numb bears at Ahome Said I could never get Bmthere,
          A                    Bm                     A                    Bm
Never get there.
E|---------------9-12-14-12-9-------------------------------9-12-14-12-9-----------------------|
B|--------10--10---------------12---12-h14-12------9--10--10---------------12------------------|
G|---------------------------------------------------------------------------------------------|
D|---------------------------------------------------------------------------------------------|
A|---------------------------------------------------------------------------------------------|
E|---------------------------------------------------------------------------------------------|
          A                    Bm                     A                    Bm
E|---------------9-12-14-12-9-------------------------------9-12-14-12-9-------14--12--9-------|
B|-----9--10--10---------------12---12-h14-12------9--10--10---------------12--------------10--|
G|---------------------------------------------------------------------------------------------|
D|---------------------------------------------------------------------------------------------|
A|---------------------------------------------------------------------------------------------|
E|---------------------------------------------------------------------------------------------|
ABreaking little twigs with my Bmfeet And underAneath Is a road that's so Bmsteep. AFar across the ocean aBmlone While numb bears at Ahome Said I could never get Bmthere But I'm already Athere already Bmthere already Athere already Bmthere already Athere already Bmthere already Athere already Bmthere
          A                    Bm                     A                    Bm
  ALREADY La   La la la la     La La La Lalala     La La   La la la la     La
E|---------------9-12-14-12-9-------------------------------9-12-14-12-9-----------------------|
B|--------10--10---------------12---12-h14-12------9--10--10---------------12------------------|
G|---------------------------------------------------------------------------------------------|
D|---------------------------------------------------------------------------------------------|
A|---------------------------------------------------------------------------------------------|
E|---------------------------------------------------------------------------------------------|
          A                    Bm                     A                    Bm
          La   La la la la     La La La Lalala     La La   La la la la     La
E|---------------9-12-14-12-9-------------------------------9-12-14-12-9-------14--12--9-------|
B|-----9--10--10---------------12---12-h14-12------9--10--10---------------12--------------10--|
G|---------------------------------------------------------------------------------------------|
D|---------------------------------------------------------------------------------------------|
A|---------------------------------------------------------------------------------------------|
E|---------------------------------------------------------------------------------------------|
          A                    Bm                     A                    Bm
E|---------------9-12-14-12-9-------------------------------9-12-14-12-9-------14--12--9-------|
B|-----9--10--10---------------12---12-h14-12------9--10--10---------------12--------------10--|
G|---------------------------------------------------------------------------------------------|
D|---------------------------------------------------------------------------------------------|
A|---------------------------------------------------------------------------------------------|
E|---------------------------------------------------------------------------------------------|
        A                    Bm                     A                    Bm              A
                                                                                 ALREADY THERE
E|-------------9-12-14-12-9-------------------------------9-12-14-12-9-------14--12--9-------|
B|---9--10--10---------------12---12-h14-12------9--10--10---------------12--------------10--|
G|-------------------------------------------------------------------------------------------|
D|-------------------------------------------------------------------------------------------|
A|-------------------------------------------------------------------------------------------|
E|-------------------------------------------------------------------------------------------|
ALREADY BmTHERE ALREADY ATHERE ALREADY BmTHERE, we are already..