Old Man Luedecke - Thrown By The Bull Again Chords

 
No chord
Standard guitar tuning:
E
A
D
G
B
E
No capo

Intro

D -----------------------2----------------------------|
C -----------------------0----------------------------|
G ------0---2p0----------0---(repeat)-----------------|
C --2/4---------4/2---0--0----------------------------|
g --------0---------0----0----------------------------|
    thrown by the bull again....
D -----------------------2-------------------------------|
C -----------------------0-------------------0-----------|
G ------0---2p0----------0---(repeat)-----0h2------2p0---|
C --2/4---------4/2---0--0-------------------------------|
g --------0---------0----0-----------------------0-------|
thought I had him by the horns but he tossed me to the wind
D ---3---------------------2--------------0--------------2---------|
C ---0---------------------0--------------2--------------0---------|
G ---2---------------------2--------------0--------------2---------|
C ---0---------------------0--------------2--------------0---------|
g ---0---------------------0--------------0--------------0---------|