Olli Schulz - Wenn Es Gut Ist Chords

 
No chord
Standard guitar tuning:
E
A
D
G
B
E
Capo on 3 fret

Intro

4x
D---0-0-0-0-0-0-0-0-|
D---0-0-0-0-0-0-0-0-|
G---0-0-0-0-0-0-0-0-|
D---0-0-0-0-0-0-0-0-|
A---4-5-5-5-5-5-5-5-|
D---0-0-0-0-0-0-0-0-|

Verse

2x
D---0-0-0-0-0-0-0-0----0-0-0-0-0-0-0-0----0-0-0-0-0-0-0-0----0-0-0-0-0-0-0-0-|
D---0-0-0-0-0-0-0-0----0-0-0-0-0-0-0-0----0-0-0-0-0-0-0-0----0-0-0-0-0-0-0-0-|
G---0-0-0-0-0-0-0-0----2-2-2-2-2-2-2-2----0-0-0-0-0-0-0-0----0-0-0-0-0-0-0-0-|
D---4-4-4-4-4-4-4-4----2-2-2-2-2-2-2-2----0-0-0-0-0-0-0-0----0-0-0-0-0-0-0-0-|
A---5-5-5-5-5-5-5-5----0-0-0-0-0-0-0-0----4-4-4-4-4-4-4-4----5-5-5-5-5-5-5-5-|
D---0-0-0-0-0-0-0-0----0-0-0-0-0-0-0-0----5-5-5-5-5-5-5-5----0-0-0-0-0-0-0-0-|

Pre-chorus

2x
D---0-0-0-0----0-0-0-0----0-0-0-0-0-0-0-0-|
D---0-0-0-0----0-0-0-0----0-0-0-0-0-0-0-0-|
G---0-0-0-0----0-0-0-0----0-0-0-0-0-0-0-0-|
D---0-0-0-0----0-0-0-0----0-0-0-0-0-0-0-0-|
A---2-2-2-2----5-5-5-5----7-7-7-7-7-7-7-7-|
D---2-2-2-2----5-5-5-5----7-7-7-7-7-7-7-7-|

Chorus

2x
D---0-0-0-0-0-0-0-0----0-0-0-0-0-0-0-0----0-0-0-0-0-0-0-0----0-0-0-0-0-0-0-0-|
D---0-0-0-0-0-0-0-0----0-0-0-0-0-0-0-0----0-0-0-0-0-0-0-0----0-0-0-0-0-0-0-0-|
G---0-0-0-0-0-0-0-0----0-0-0-0-0-0-0-0----0-0-0-0-0-0-0-0----0-0-0-0-0-0-0-0-|
D---4-4-4-4-4-4-4-4----0-0-0-0-0-0-0-0----0-0-0-0-0-0-0-0----0-0-0-0-0-0-0-0-|
A---5-5-5-5-5-5-5-5----4-4-4-4-4-4-4-4----2-2-2-2-2-2-2-2----5-5-5-5-5-5-5-5-|
D---0-0-0-0-0-0-0-0----5-5-5-5-5-5-5-5----2-2-2-2-2-2-2-2----5-5-5-5-5-5-5-5-|
Post-Chorus (ähnlich wie Intro):
2x
D---0-0-0-0-0-0-0-0-|
D---0-0-0-0-0-0-0-0-|
G---0-0-0-0-0-0-0-0-|
D---0-0-0-0-0-0-0-0-|
A---4-5-5-5-5-5-4-4-|
D---0-0-0-0-0-0-0-0-|

Solo

2x
D---0-0-7-7-7-7-7-7----0--0--0--0--0--0--0--0-|
D---0-0-0-0-0-0-0-0----0--0-11-11-11-11-11-11-|
G---5/7-7-7-7-7-7-7----0--0--0--0--0--0--0--0-|
D---0-0-0-0-0-0-0-0----7/11-11-11-11-11-11-11-|
A---x-x-x-x-x-x-x-x----x--x--x--x--x--x--x--x-|
D---x-x-x-x-x-x-x-x----x--x--x--x--x--x--x--x-|
D----0--0--0--0-0-0-0-0-0-0-0-0-0-0-0-0-|
D---12-12-12-12/7-7-7-7/5-5-5-5-5-5-5-5-|
G---11-11-11-11/6-6-6-6/4-4-4-4-4-4-4-4-|
D----0--0--0--0-0-0-0-0-0-0-0-0-0-0-0-0-|
A----x--x--x--x-x-x-x-x-x-x-x-x-x-x-x-x-|
D----x--x--x--x-x-x-x-x-x-x-x-x-x-x-x-x-|
Schlussakkord:
D---0
D---0
G---0
D---4
A---5
D---0