One Minute Silence - Rise And Shine Chords

Intro(Guitar) Riff
Harmonics In Riff
Chorus Riff
Bridge Riff
 
No chord
Drop d guitar tuning
No capo

Intro

G------------|
D0--3h5---3--|
A-------3---3|
D------------|
intro part b:
G -----------|------------|
D -----------|------------|
A 5-5-3-5-5-3|-5-3-5-3-5-3|
D -----------|------------|
main riff
G ----------|----------|
D ----------|----------|
A --3-5-55-3|--3-5-55-3|
D 0---------|0---------|

Middle part

listen to song)
G -----------------------|
D 0-3h5---3h5---3h5---4h3|
A ------3-----1-----3----|
D -----------------------|
ending: same as intro (a), but with D 0h1h0