Panda - So Violento So Macabro Chords

Main Riff
Main Riff
Break Riff
 
No chord
Standard guitar tuning:
E
A
D
G
B
E
No capo
|-------------------------------------------------------|
|---------------12-12---12--------------12-12----12-----|
|--10-10--10-----------------10-10--10------------------|
|-------------------------------------------------------|
|-------13--12-------13---12------13--12-------13—-12---|
|-------------------------------------------------------|
|-------------------------------------------------------|
|-------------------------------------------------------|
|-------------------------------------------------------|
|-------------------------------------------------------|
|--13-12-13-15-13---13-12-13-15-13----------------------|
|-------------------------------------------------------|
|-------------------------------------------------------|  x2
|-------------------------------------------------------|
|-------------------------------------------------------|
|--13-13-17-17--13-13-17-17-----------------------------|
|----------------------------8----8---8----8----8--8----|
|------------------------------10--12---10---12—-10--8~7|
guitarra 2 (pepe) al principio
|------------------------------------------------------|
|4444444444--777777777--4444444444--7777777777---------|
|6666666666--999999999--6666666666--9999999999---------|
|6666666666--999999999--6666666666--9999999999---------|
|------------------------------------------------------|
|------------------------------------------------------|
antes del requinto guitarra 2 cuando cambia el ritmo
|---333333--------66666--------------------------------|   x2
|---555555--4-----88888--7-----------------------------|
|---555555--6-----88888--9-----------------------------|
|-----------6------------9-----------------------------|
|------------------------------------------------------|
|------------------------------------------------------|
“confia en mi amor lo tengo calculado si todo sale mal, pido perdon de antemano”
|------------------------------------------------------|
|---4444444444--------777777777------------------------|
|---6666666666--------999999999------------------------|
|---6666666666--------999999999------------------------|
|------------------------------------------------------|
|------------------------------------------------------|
Antes del grito va un requintito asi
|------------------------------------------------------|  x2
|------------------------------------------------------|
|------------------------------------------------------|
|--13-13-13---11-11-11--6666666------------------------|
|------------------------------------------------------|
|------------------------------------------------------|
el ritmo de la guitarra dos durante el grito cambia ritmo
|------------------------------------------------------| x2
|--7--~--4-4---~---7-7--~--4-4-------------------------|
|--9--~--6-6---~---9-9--~--6-6-------------------------|
|--9--~--6-6---~---9-9--~--6-6-------------------------|
|------------------------------------------------------|
|------------------------------------------------------|
 durante eso la guitarra 1 le hace algo asi
|------------------------------------------------------| x3
|------------------------------------------------------|
|------------------------------------------------------|
|------------------------------------------------------|
|------------------------------------------------------|
|-18-X7-17-X7-15-X6-14-X5-1212-------------------------|
|---------------------------------------------------------|
|---------------------------------------------------------|
|---------------------------------------------------------|
|---------------------------------------------------------|
|---------------------------------------------------------|
|18-X6-17-X6-15-X5-14-X4-1212-1313141415151616171718181919|
“y sabes bien lo que soy capas”
|-----------------------------------------------------------|
|--4-----------4--7----------7-4----------4-7---—-----7---4-|
|----6-------6------9-------9----6-------6----9------9----6-|
|------6---6----------9---9--------6---6--------9---9-----6-|
|--------6--------------9------------6------------9-------6-|
|-----------------------------------------------------------|