Paramore - All We Know Is Falling Chords

 
         
         
         
         
3
2
4
3 fr
         
         
         
         
1
3
4
2
1
1
         
         
         
         
2
1
3
4
3 fr
         
         
         
         
X
X
3
2
1
1
5 fr
         
         
         
         
X
X
1
3
4
3
7 fr
         
         
         
         
X
4
3
1
2
1

10 fr
         
         
         
         
X
1
2
3
4
X
10 fr
         
         
         
         
X
1
3
3
3
1
12 fr
         
         
         
         
3
2
1
1
1
4

D/F

variations
         
         
         
         
1
2
4
3
         
         
         
         
X
X
3
1
2
1
7 fr
         
         
         
         
X
3
1
1
1
4
2 fr
         
         
         
         
1
4
3
1
2
1
7 fr
         
         
         
         
1
3
4
2
1
1
         
         
         
         
X
2
1
X
3
         
         
         
         
X
1
4
4
4
X
         
         
         
         
X
1
3
3
3
1
4 fr
         
         
         
         
4
3
1
1
1
X
4 fr
         
         
         
         
3
2
1
1
1
4

9 fr
         
         
         
         
X
X
1
3
4
3
11 fr
         
         
         
         
X
4
3
1
2
1
         
         
         
         
X
1
2
X
X
5 fr
         
         
         
         
1
3
4
X
X
X
7 fr
         
         
         
         
X
X
1
3
4
X
         
         
         
         
X
X
5 fr
         
         
         
         
X
X
5 fr
         
         
         
         
X
X
         
         
         
         
2
3
3 fr
         
         
         
         
X
X
2
4
1
7 fr
         
         
         
         
X
1
3
4
2
1
2 fr
         
         
         
         
X
X
1
3
4
2
3 fr
         
         
         
         
X
3
2
4
1
4 fr
         
         
         
         
X
4
3
1
2
X

12 fr
         
         
         
         
1
3
4
1
1
1
3 fr
         
         
         
         
1
3
4
X
X
X
5 fr
         
         
         
         
X
X
1
3
4
X
10 fr
         
         
         
         
X
1
3
4
X
X
         
         
         
         
X
3 fr
         
         
         
         
X
X

F5

variations
         
         
         
         
1
3
4
X
X
X
4 fr
         
         
         
         
X
X
1
3
4
X
9 fr
         
         
         
         
X
1
3
4
X
X
         
         
         
         
X
3
2
1
3 fr
         
         
         
         
X
1
2
3
4
1
8 fr
         
         
         
         
1
3
4
2
1
1
3 fr
         
         
         
         
X
1
X
3
4
1
5 fr
         
         
         
         
3
2
1
1
1
4
10 fr
         
         
         
         
X
X
1
3
4
3

12 fr
         
         
         
         
X
4
3
1
2
1
3 fr
         
         
         
         
X
         
         
         
         
X
1
3
1
2
4 fr
         
         
         
         
2
1
3
1
4
X
5 fr
         
         
         
         
1
3
1
2
1
4
         
         
         
         
X
X
1
3
2
2 fr
         
         
         
         
X
4
3
1
2
1
5 fr
         
         
         
         
X
1
2
3
4
1
5 fr
         
         
         
         
X
1
4
4
4
X
7 fr
         
         
         
         
4
3
1
1
1
X
7 fr
         
         
         
         
3
2
1
1
1
4

10 fr
         
         
         
         
1
3
4
2
1
1
12 fr
         
         
         
         
X
X
1
3
4
3
5 fr
         
         
         
         
X
X
         
         
         
         
X
X
1
2
X
5 fr
         
         
         
         
X
1
3
4
X
X
10 fr
         
         
         
         
1
3
4
X
X
X
         
         
         
         
X
1
3
4
X
X
7 fr
         
         
         
         
1
3
4
X
X
X
9 fr
         
         
         
         
X
X
1
3
4
X
         
         
         
         
X
X
3 fr
         
         
         
         
X
1
3
4
X
X
8 fr
         
         
         
         
1
3
4
X
X
X
10 fr
         
         
         
         
X
X
1
3
4
X
3 fr
         
         
         
         
X
X
         
         
         
         
X
1
3
4
2
1
7 fr
         
         
         
         
1
3
4
1
1
1
         
         
         
         
X
1
3
4
2
X
7 fr
         
         
         
         
X
X
3
1
1
1
9 fr
         
         
         
         
X
X
1
3
4
2
11 fr
         
         
         
         
X
4
3
1
2
X
         
         
         
         
X
1
2
3
5 fr
         
         
         
         
1
3
4
2
1
1
2 fr
         
         
         
         
X
1
1
1
4
         
         
         
         
X
X
1
2
2 fr
         
         
         
         
3
2
1
1
1
4
7 fr
         
         
         
         
X
X
1
3
4
3

9 fr
         
         
         
         
X
4
3
1
2
1
12 fr
         
         
         
         
X
1
3
3
3
1

F

variations
         
         
         
         
1
3
4
2
1
1
         
         
         
         
X
X
3
2
1
1
6 fr
         
         
         
         
X
4
3
1
2
1
4 fr
         
         
         
         
X
X
1
2
4
3
9 fr
         
         
         
         
X
1
3
3
3
1
11 fr
         
         
         
         
4
3
1
1
1
X

11 fr
         
         
         
         
3
2
1
1
1
4

Cm

variations
4 fr
         
         
         
         
X
1
3
4
2
1
9 fr
         
         
         
         
1
3
4
1
1
1
         
         
         
         
X
4
2
1
X
X
         
         
         
         
X
4
3
1
2
X
4 fr
         
         
         
         
X
1
X
X
2
1
11 fr
         
         
         
         
X
X
1
3
4
2

4 fr
         
         
         
         
X
X

B/D

variations
4 fr
         
         
         
         
X
3
1
1
1
X
         
         
         
         
X
X
1
X
3
4 fr
         
         
         
         
X
3
1
1
1
4
         
         
         
         
2
3
1
4 fr
         
         
         
         
X
4
3
1
2
1
7 fr
         
         
         
         
X
1
4
4
4
X
2 fr
         
         
         
         
X
X
1
2
4
3
4 fr
         
         
         
         
4
3
1
2
1
7 fr
         
         
         
         
X
1
3
3
3
1

9 fr
         
         
         
         
4
3
1
1
1
X
9 fr
         
         
         
         
3
2
1
1
1
4
12 fr
         
         
         
         
1
3
4
2
1
1
4 fr
         
         
         
         
X

Fm

variations
         
         
         
         
1
3
4
1
1
1
4 fr
         
         
         
         
X
X
1
3
4
2
         
         
         
         
X
X
3
1
1
1
9 fr
         
         
         
         
X
1
3
4
2
1
6 fr
         
         
         
         
X
4
3
1
2
X

E/G

variations
4 fr
         
         
         
         
1
4
3
1
2
1
         
         
         
         
4
2
3
1
4 fr
         
         
         
         
1
X
X
2
4
3
4 fr
         
         
         
         
X
X
3
1
2
1

A/C

variations
         
         
         
         
X
3
1
1
1
X
2 fr
         
         
         
         
X
3
1
1
1
4
4 fr
         
         
         
         
X
1
4
3
2
X
4 fr
         
         
         
         
X
1
X
X
4
4

B

variations
         
         
         
         
X
1
2
3
4
1
6 fr
         
         
         
         
1
3
4
2
1
1
         
         
         
         
X
1
4
4
4
X
         
         
         
         
X
1
X
3
4
1
3 fr
         
         
         
         
3
2
1
1
1
4
8 fr
         
         
         
         
X
X
1
3
4
3

10 fr
         
         
         
         
X
4
3
1
2
1

Em

variations
6 fr
         
         
         
         
X
1
3
4
2
1
         
         
         
         
X
X
1
3
4
2
3 fr
         
         
         
         
X
4
2
1
X
X
6 fr
         
         
         
         
X
1
X
X
2
1
3 fr
         
         
         
         
X
4
3
1
2
X
11 fr
         
         
         
         
1
3
4
1
1
1

Am

variations
4 fr
         
         
         
         
1
3
4
1
1
1
6 fr
         
         
         
         
X
X
1
3
4
2
4 fr
         
         
         
         
X
X
3
1
1
1
         
         
         
         
4
2
1
X
X
X
8 fr
         
         
         
         
X
4
3
1
2
X
11 fr
         
         
         
         
X
1
3
4
2
1
         
         
         
         
X
2
1
         
         
         
         
X
2
3
1
4
5 fr
         
         
         
         
X
1
1
1
1
5 fr
         
         
         
         
1
3
1
1
1
1
5 fr
         
         
         
         
1
3
1
1
4
1
7 fr
         
         
         
         
X
1
4
2
3

10 fr
         
         
         
         
X
2
1
3
1
4
12 fr
         
         
         
         
X
1
3
1
2
4
5 fr
         
         
         
         
X
         
         
         
         
1
3
4
2
1
1
5 fr
         
         
         
         
X
4
3
1
2
1
3 fr
         
         
         
         
X
X
1
2
4
3
         
         
         
         
X
X
3
2
1
1
8 fr
         
         
         
         
X
1
3
3
3
1
10 fr
         
         
         
         
4
3
1
1
1
X

10 fr
         
         
         
         
3
2
1
1
1
4

B9

variations
5 fr
         
         
         
         
2
1
3
1
4
X
6 fr
         
         
         
         
1
3
1
2
1
4
         
         
         
         
X
X
2
1
1
5 fr
         
         
         
         
X
1
3
1
2
1
5 fr
         
         
         
         
X
1
X
2
4
3
5 fr
         
         
         
         
X
1
3
1
2
4
3 fr
         
         
         
         
X
2
1
3
1
4
10 fr
         
         
         
         
1
3
X
1
4
1

10 fr
         
         
         
         
1
3
1
1
4
1
10 fr
         
         
         
         
1
3
1
1
1
1
12 fr
         
         
         
         
X
X
1
3
2
2
5 fr
         
         
         
         
X
X
3 fr
         
         
         
         
1
3
4
1
1
1
5 fr
         
         
         
         
X
X
1
3
4
2
3 fr
         
         
         
         
X
X
3
1
1
1
         
         
         
         
1
X
2
3
4
         
         
         
         
3
1
X
X
X
         
         
         
         
2
1
3
4

7 fr
         
         
         
         
X
4
3
1
2
X
10 fr
         
         
         
         
X
1
3
4
2
1
         
         
         
         
X
2
3
1
5 fr
         
         
         
         
1
3
4
1
1
1
5 fr
         
         
         
         
X
X
1
1
1
8 fr
         
         
         
         
X
3
2
4
1
2 fr
         
         
         
         
X
1
4
4
4
7 fr
         
         
         
         
X
1
3
4
2

9 fr
         
         
         
         
X
4
3
1
2
X
12 fr
         
         
         
         
X
1
3
4
2
1
5 fr
         
         
         
         
X
         
         
         
         
X
2
4
7 fr
         
         
         
         
1
4
3
1
2
1
         
         
         
         
X
1
X
X
3
4
         
         
         
         
X
1
3
4
2 fr
         
         
         
         
X
1
4
3
2
X
         
         
         
         
X
X
2
3
1
5 fr
         
         
         
         
X
1
3
4
2
1
10 fr
         
         
         
         
X
X
1
1
1
5 fr
         
         
         
         
X
X
3
2
1
2 fr
         
         
         
         
X
4
3
1
2
X
10 fr
         
         
         
         
1
3
4
1
1
1

12 fr
         
         
         
         
X
X
1
3
4
2
         
         
         
         
1
3
1
1
1
1
3 fr
         
         
         
         
X
X
1
4
2
3
8 fr
         
         
         
         
X
1
X
2
4
3
         
         
         
         
1
3
1
1
4
1
8 fr
         
         
         
         
X
1
3
1
2
1
6 fr
         
         
         
         
X
2
1
3
1
4

8 fr
         
         
         
         
X
1
3
1
2
X
8 fr
         
         
         
         
X
1
3
1
2
4
6 fr
         
         
         
         
2
1
3
1
4
X
7 fr
         
         
         
         
1
3
1
2
1
4

A5

variations
4 fr
         
         
         
         
1
3
4
X
X
X
6 fr
         
         
         
         
X
X
1
3
4
X
11 fr
         
         
         
         
X
1
3
4
X
X
4 fr
         
         
         
         
X
X

E/G

variations
         
         
         
         
1
X
X
2
4
3
3 fr
         
         
         
         
X
X
3
1
2
1
8 fr
         
         
         
         
X
3
1
1
1
4
3 fr
         
         
         
         
1
4
3
1
2
1
         
         
         
         
1
3
4
X
X
X
3 fr
         
         
         
         
X
X
1
3
4
X
8 fr
         
         
         
         
X
1
3
4
X
X
         
         
         
         
X
X

E5

variations
         
         
         
         
X
X
1
3
4
X
6 fr
         
         
         
         
X
1
3
4
X
X
11 fr
         
         
         
         
1
3
4
X
X
X
6 fr
         
         
         
         
X
X

A

variations
4 fr
         
         
         
         
1
3
4
2
1
1
4 fr
         
         
         
         
X
X
3
2
1
1
6 fr
         
         
         
         
X
X
1
2
4
3
         
         
         
         
3
2
1
1
1
4
8 fr
         
         
         
         
X
4
3
1
2
1
11 fr
         
         
         
         
X
1
2
3
4
X

11 fr
         
         
         
         
X
1
3
3
3
1
         
         
         
         
1
3
4
1
1
1
         
         
         
         
X
X
3
1
1
1
3 fr
         
         
         
         
X
X
1
3
4
2
8 fr
         
         
         
         
X
1
3
4
2
1
5 fr
         
         
         
         
X
4
3
1
2
X

E

variations
3 fr
         
         
         
         
X
4
3
1
2
1
6 fr
         
         
         
         
X
1
2
3
4
1
         
         
         
         
X
X
1
2
4
3
3 fr
         
         
         
         
X
4
3
1
2
X
8 fr
         
         
         
         
4
3
1
1
1
X
8 fr
         
         
         
         
3
2
1
1
1
4

11 fr
         
         
         
         
1
3
4
2
1
1

Cm7

variations
4 fr
         
         
         
         
X
1
3
1
2
1
9 fr
         
         
         
         
1
3
1
1
1
1
4 fr
         
         
         
         
X
1
X
2
4
3
         
         
         
         
X
2
1
3
1
4
4 fr
         
         
         
         
X
1
3
1
2
4
         
         
         
         
X
4
2
1

9 fr
         
         
         
         
1
3
1
1
4
1
11 fr
         
         
         
         
X
X
1
3
2
2

C

variations
4 fr
         
         
         
         
X
1
2
3
4
1
         
         
         
         
X
4
3
1
2
1
4 fr
         
         
         
         
X
1
4
4
4
X
6 fr
         
         
         
         
4
3
1
1
1
X
6 fr
         
         
         
         
3
2
1
1
1
4
9 fr
         
         
         
         
1
3
4
2
1
1

11 fr
         
         
         
         
X
X
1
3
4
3
No chord
Standard guitar tuning:
E
A
D
G
B
E
Capo on 1 fret
Key: G Chords used: D/F- 2x023x or 254xxx

Verse 1

B Dis

A5 Em G5 A5 we tried so hard to G5undEmersF5tandG5 G5-F#5-Em------C5(x20)-[strum this Chord 20 times.] but we can't A5 Em G5 A5 we held the world out G5in EmourF5 hanG5ds G5-F#5-Em------C5(x20) and you ran away A5 Em G5 A5 it takes some time to G5letEm yoF5u goG5 G5-F#5-Em------C5(x20) and it shows

Chorus

Em cause all we know Cis falling, it fA9allsD Em and remember, causCe I know that we wD/Fon't forget it Emall

Verse 2

A5 Em G5 A5 now we can follow G5youEm baF5ck hG5ome G5-F#5-Em------C5(x20) but we won't A5 Em G5 A5 is this what you have G5waiEmtedF5 forG5 G5-F#5-Em------C5(x20) just to be alone? A5 Em G5 A5 it takes some time to G5letEm yoF5u goG5 G5-F#5-Em------C5(x20) and it shows

C

Bridge

D5 B5 C5 you never D5 B5 C5 you never said D5 B5 C5 this wasn't what you wanted D5 B5 C5was it? was it?
Hayley: x4
e|--------------
B|--------------
G|-7--4--5------
D|-7--4--5------
A|-5--2--3------
E|--------------
Jason: (2:04)
e|-5~--3~--0-----0-----0-----
B|-----------3-----3-----3---
G|-------------0-----0-----0-
D|---------------------------
A|---------------------------
E|---------------------------
Josh: Harmonics (2:11)
e|-12*---------------
B|-------------------
G|----------5*-------
D|------9*-----------
A|-------------------
E|-------------------
Hayley and Jason: (x2)
e|-------------------
B|----------------------------------
G|-7777777-5-5----------------------
D|-7777777-5-5----22222222-4444444--
A|-5555555-3-3----22222222-5555555--
E|----------------00000000-2222222--
Josh: Harmonics also (This wasn't what you wanted)
e|----------------
B|----------5*----
G|---5*-----------
D|----------------
A|----------------
E|----------------
Hayley and Jason: (x2)
e|--------------------------
B|--------------------------
G|-5555---------------------
D|-5555----22222222-4444444-
A|-3333----22222222-5555555-
E|---------00000000-2222222-
Josh's Solo:
e|----------------------------------------------------------------------
B|----------------------------------------------------------------------
G|----------------------------------------------------------------------
D|-----------------------------------------------------1616161616161616-
A|-------------------1717171717171717-1919191919191919------------------
E|-19191919-17171717----------------------------------------------------
e|----------1919191919-----------------------------1919191919--------------------
B|-20202020------------171717171717171717-20202020-------------------------------
G|------------------------------------------------------------191919191919191919-
D|-------------------------------------------------------------------------------
A|-------------------------------------------------------------------------------
E|-------------------------------------------------------------------------------
e|-------------------------------------------------------
B|-17171717-1919191919-2020202020202020------------------
G|--------------------------------------1616161616161616-
D|-------------------------------------------------------
A|-------------------------------------------------------
E|-------------------------------------------------------
C Bo Em this isn't D/Fwhat you wanted C Bo Em this isn't D/Fwhat you wanted

Solo

C Em D/F

C5

C

2.) Pressure Key: D Chords used:

Intro

Bm D G A

Guitar 2:
e|--------------------------------------------------------------
B|--------------------------------------------------------------
G|-11--11-11\9-9--14--14-14\11-11--11--11-11\9-9--6--6-6/7\6/7--
D|--x---x--x-------x---x--x--x--x---x---x--x-x-x--x--x-x-x-x-x--
A|--9---9--9\7-7--12--12-12\-9--9---9---9--9\7-7--4--4-4/5\4/5--
E|--------------------------------------------------------------

Verse 1

Bm Gtell me where our time Dwent and Fif it was time well sBmpent just Gdon't let me fall asDleep Ffeeling empty aBmgain cause I fear I Gmight break D and I fear I Fcan't take it Bm tonight I'll Glie awake D feeling Fempty.

Chorus 1

I can Gfeel the DpressureF it's getting Gcloser now we're Dbetter Foff wiGthout you I can feel the DpressureF it's getting Gcloser now we're Dbetter Foff wiGthout you
Josh: (x2)
      (x3) this part                                    (x4) this part
e|----------17-------------|-----------5/7\5-|----------17-------------
B|----15----------15----15-|----15-----------|----15----------15----15-
G|-14----14----14----14----|-14----14--------|-14----14----14----14----
D|-------------------------|-----------4/5\4-|-------------------------
A|-------------------------|-----------------|-------------------------
E|-------------------------|-----------------|-------------------------

Verse 2

Bm Gnow that I'm losing Dhope and Fthere's nothing else to Bmshow for Gall of the days that we sDpent Fcarried away from Bmhome some things I'll Gnever knowD and I had to Flet them goBm I'm sitting Gall aloneD feeling Fempty

C

Bm

Interlude

Bm D G A

Bridge

Bm some things I'll Gnever knowD F Bm and I had to Glet them goD F Bm some things I'll Gnever know D and I had to Flet them go Bm but I'm sitting Gall alone D feeling FemptyBm
Josh: (x10) So in x9 & x10, while doing bridge
e|----------9--------------
B|----10---------10----10--
G|-11----11---11----11-----
D|-------------------------
A|-------------------------
E|-------------------------

Chorus 2

I can Gfeel the DpressureF it's getting Gcloser now we're Dbetter Foff wiGthout you I can feel the DpressureF it's getting Gcloser now we're Dbetter Foff wiGthout me D 3.) Here We Go Again Chords used: E - 022100 or 079900

Intro

A9--C#m (x2)
Guitar 2: / means slide up, \ means slide down, x is dead string
e|-----------------------------------
B|-----------------------------------
G|-16--16\11--13--9--8--8-8/9\8/9----
D|--x---x--x---x--x--x--x-x-x-x-x----
A|-14--14\-9--11--7--6--6-6/7\6/7----
E|-----------------------------------
then
e|-----------------------------------
B|-----------------------------------
G|-16--16\11--13--9--8--8-8/9\8\4----
D|--x---x--x---x--x--x--x-x-x-x-x----
A|-14--14\-9--11--7--6--6-6/7\6\2----
E|-----------------------------------

Verse 1

A9 and here we go againCm, with all the things you A9said, and not a minute spentCm to think that we'd regA9ret. so we just take it backCm, these words and hold our A9breath, forget the Cmthings we swore we A9meant.
Guitar 2: (x4)
e|-4--5--7---7---7---7---7---7----
B|---------5---5---5---5---5---5--
G|--------------------------------
D|--------------------------------
A|--------------------------------
E|--------------------------------
then this one before chorus
e|-4(x4)-5(x4)-7(x4)-5(x2)-4--
B|----------------------------
G|----------------------------
D|----------------------------
A|----------------------------
E|----------------------------

Chorus

Cm I'll write you B/Djust to let Eyou A9know that I'm alCmright. can't say I'm B/Dsad to Esee youA9 go, cause I'm notCm. (no I'm B/Dnot...) well EI'm notA9. Cm B/D A9

Interlude 1

A9--C#m--A9--C#m

Verse 2

A9 and here we go againCm, with all the things we A9did. and now I'm wonderingCm, just who would I have A9been, to be the one attatchedCm at all times to your A9hip. forget the Cmthings we swore we A9meant.

C

Interlude 2

A9--C#m (x2) A9

Bridge

Cm I'll write youB/D to let youA9 know that I'm alright. Cm can't say I'm B/Dsad to see youA9 go, cause I'm notCm. (no I'm B/Dnot...A9) well I'm not.Cm B/D I'm A9not

Outro

and here we go again, with all the things we Cmsaid, and not a minute spent to think that we'd reA9gret (so we just take it back, so we just take it backCm, so we just take it back, so we just take it backA9, so we just take it back, so we just take it backCm, so we just take it back, so we just take it backA9, so we just take it back, so we just take it backCm, B/D A9 Bo 4.) Brighter Key: A Chords used:

Intro

Part 1: A
Guitar 2:
e|-----4-4-----4-4----------
B|-----5-5-----5-5----------
G|-1h2-----1h2--------------
D|-------------------------- (x2)
A|-----------------4h5p4h5--
E|--------------------------
Part 2: A--F#m--D--E
Guitar 2:
      x2 this part             at time 0:013 this part
e|-------------------------|-----5---7---9----5-5-x--4--
B|-------------------------|-2-3---3---5---5------x-----
G|-------------------------|----------------------x-----
D|-6h7p6-6-6h7p6-----------|----------------------x-----
A|----------------4h5p4h5--|----------------------x-----
E|-------------------------|----------------------x-----

Verse 1

Fm so this is Ehow it Dgoes well IFm, I would have Enever Dknown Fm and if it Eends toDday well I'll still say that Fmyou shine E/Gbrighter than Danyone
Guitar 2:
   x2 this part
e|-------5--------|-------5---7---5-------7---5------
B|---5------5---5-|---5---------------5-----------5--
G|----------------|----------------------------------
D|-7---7------7---|-7---7---7---7---7---7---7---7----
A|----------------|----------------------------------
E|----------------|----------------------------------

Chorus

Anow I think we're taking this too Fmfar don't you know that Dit's not this hard well it's Enot this hard Abut if you take what's yours and I take Fmmine must we go there Dplease, not this time no, Enot this time

Verse 2

Fm well this is Enot your Dfault but if I'm without Fmyou then I will Efeel so sDmall Fm and if you Ehave to Dgo we'll always know that Fmyou shine E/Gbrighter than Danyone does

C

Interlude

F#m--E--D--E x2
Guitar 2:
e|----------------17~-----------------------
B|-12/14---------------12/14----------------
G|-------14-13-14------------14-13----------
D|---------------------------------16~--14--
A|------------------------------------------
E|------------------------------------------
e|----------------17~--17-16----------------
B|-12/14---------------------19-14-15-17~---
G|-------14-13-14---------------------------
D|------------------------------------------
A|------------------------------------------
E|------------------------------------------

Bridge

if Fmyou runE aDway nowE will Fmyou comeE/G back aDround?

Verse 3

Fm and if you Eran aDway I'd still wave goodFmbye watching you Eshine brightD

C

Outro

Fm and I'll wave goodEbye watching you Dshine brightE Fm and I'll wave goodE/Gbye toDnight 5.) Emergency Key: A Chords used:

Intro

D--
Guitar 2:
e|-------9-----9-----9-------------7-----7-----7--------
B|---7-----7-----7-----7---7---7-----7-----7-----7---7--
G|-----7-----7-----7-----7-------7-----7-----7-----7----
D|-0-------------------------0--------------------------
A|------------------------------------------------------
E|------------------------------------------------------
E-F#m--E E-F#m--E

Verse 1

D I think we have an emergency, I think we have an emergencyE Fm if you thought I'd leave then you Ewe're wrongE cFmause I won't stop holEding on D so are you listening, so are you watching me?E Fm if you thought I'd leave then you Ewe're wrongE cFmause I won't stop holEding on. D this is an emergency, so are you listening. and I EcaFmn't pretend Ethat EI Fmdon't see Ethis.

Refrain

E but it's really not your Fmfault, when no one cares to Dtalk about it, talk about it.Bm A/C

Chorus

Bm cause I've Dseen love Fmdie, way Atoo many timesBm when it deDserved to be aFmlive.E Bm and I've Dseen you Fmcry, way Atoo many timesBm when you deDserved to be aFmliveE, aDlive.

Verse 2

E Fmso you give up every Echance you getE, Fmjust to feel newE again. D I think we have an emergency. I think we have an emergencyE. Fm and you do your best to show Eme loveE, Fmbut you don't know whatE love is. D so are you listening, so are you watching me. E Fmwell I can't pretend Ethat EI Fmdon't see Ethis.

C

Bridge

SEcars they will notFm Dfade away. Jason guitar solo while doing this chords E--F#m--D (x2)

Guitar solo

e|-----------------------------------------------
B|-----------------------------------------------
G|----------13-14-13-------------13-14-13--------
D|-------14----------14-------14----------14-----
A|-12-14----------------12-14----------------14--
E|-----------------------------------------------
e|----------------------------------------
B|-12--14--------------12--14-------------
G|--------14------------------14--13--13--
D|------------14--h16---------------------
A|----------------------------------------
E|----------------------------------------
e|-------------------------------12-------
B|-------------------------12-14----------
G|----------13-14-13----14-------------14-
D|-------14----------14-------------------
A|-12-14----------------------------------
E|----------------------------------------
e|17--16--------------17--16--------------
B|-------17------------------17-----------
G|----------18------------------18--------
D|--------------h16-----------------h16---
A|----------------------------------------
E|----------------------------------------
E Fm when no one cares to Dtalk about it talk about itBm Cm

C

6.) Let This Go Key: F Chords used:

F/B - 143xxx

Intro

Part 1:
Guitar 1:
e|-------14-------14-|-------16-------16-|-------14-------14-
B|----12-------12----|----12-------12----|----12-------12----
G|-15-------15-------|-15-------15-------|-15-------15-------
D|-------------------|-------------------|------------------- (x2)
A|-------------------|-------------------|-------------------
E|-------------------|-------------------|-------------------
Guitar 2: Chords

Em F B

Part 2:
Guitar 1:
e-----------9-7---6-7---6-7---6-7-------
B---------7-----7-----7-----7-----------
G---------------------------------------
D--------------------------------------- (x2)
A---------------------------------------
E---------------------------------------
Guitar 2: Chords B-G#m-- (x2)

Verse 1

B MayAmbe if my heart stopsB beaAmting it won't hurt thiEms much
Guitar 2:
e|--------------------
B|--------7-6---------
G|------------6-6-----
D|----------------8-8-
A|--------------------
E|--------------------
andB neAmver will I have toB ansAmwer again to anyEmone
Guitar 2:
e|--------------------
B|--------7-6---------
G|------------6-6-----
D|----------------8-8-
A|--------------------
E|--------------------
Bplease Amdon't get me BwrongAm

Chorus

because FI'll never let this Bgo
but AmI can't find the FworBds to tell Byou

F B

I don't want to be------alone
but Amnow I feel like FI dBon't know Byou

Verse 2

B One Amday you'll get sick of BsaAmying that everything's alEmright
Guitar 2:
e|--------------------
B|--------7-6---------
G|------------6-6-----
D|----------------8-8-
A|--------------------
E|--------------------
andB by Amthen I'm sure I'll preB-tenAmding just like I am toEmnight
Guitar 2:
e|--------------------
B|--------7-6---------
G|------------6-6-----
D|----------------8-8-
A|--------------------
E|--------------------
Bplease Amdon't get me BwrongAm

Bridge

Em let FthiBs Bgo Em let Fthis Bgo

Solo

Guitar 2:
e|-----2-|-------|-----2-|-4-2-2-|-----2-|-------|---------
B|-------|-------|-------|-------|-------|-------|---------
G|-3-4---|-3-4-1-|-3-4---|-------|-3-4---|-3-4-1-|----1--3-
D|-------|-------|-------|-------|-------|-------|-4------- (x2)
A|-------|-------|-------|-------|-------|-------|---------
E|-------|-------|-------|-------|-------|-------|---------
Guitar 2: D#m-F#/Bb-B--D#m-F#-B (x2)

C

Coda

but Amnow I feel like FI dBon't know ByoBou 7. Whoa Key: E Chords used: A- 577655 or x02220

Intro

Am7 E B

Verse 1

Am7 I've hoped for Echange it gets Bbetter everyAm7day I've hoped for Echange but Bstill I feel the Am7same there's something Ewrong cause Beverybody Am7knows that we can do this on our EownB.

Chorus

Am and we've got everybody Asinging whoEa, whoa, whoa, whoa Am and we've got everybody Asinging whoEa, whoa, whoa, whoa.B/D Bo

Verse 2

Am7 we're doing Efine and it gets Bbetter everyAm7time we're doing Efine but BI'll let you deAm7cide there's something Ewrong cause Beverybody Am7knows that we can do this on our EownB

Bridge

A and I'll conEfess that I can Ambe a little AselfishE Am A yeah I'll Eadmit I don't want Amyou to help me Athrough this I don't Ewant to start Amover again

Interlude

A E Am

E Am and we've got everybody Asinging...E

C

B

8.) Conspiracy Key: F Chords used:

Intro

Part 1: Guitar 1:

B9 Dm7

Guitar 2:

B9 Dm7

e|-------8----------8-----------------|-------------------5---5- B|---------10---------10----10----10--|---6-5-6---6-5-6-6---6--- G|-10-10------10-10------10----10-----|-7-------7--------------- D|------------------------------------|-------------------------(x2) A|------------------------------------|------------------------- E|------------------------------------|-------------------------
Guitar 3: (at time 0:07)
e|-15(x3)-12(x3)-------------------------------------
B|------------------------13----------------------13-
G|---------------14h15p14-----------------15--14-----
D|----------------------------14h15p14-14------------
A|---------------------------------------------------
E|---------------------------------------------------
Part 2: Bb9---C-F-Dm7

Verse 1

B9 please speak softly Dm7 for they will hear us B9 and they'll find out Dm7 why we don't trust them B9 speak out dear Dm7 cause I cannot hear you B9 I need to know Dm7 why we don't trust them
Guitar 2:
e|-----------------------------------
B|-----------------------------------
G|-----------------------------------
D|----------------------------------- (x2)
A|-3/8--3/8-3/10-3/10-10/12/13\12----
E|-----------------------------------
Guitar 3:

E|-12-12-12-12-12-12-13-13-13-13-13-13-15-15-15-15-15-15-17-17-17-17-17-17-

B|------------------------------------------------------------------------- G|------------------------------------------------------------------------- D|------------------------------------------------------------------------- A|------------------------------------------------------------------------- E|-------------------------------------------------------------------------

Chorus

B9 explain to me this conspiCracy aFgainst me Dm7yeah B9 and tell me how I've lost my CpowerF Dm7oh yeah

Verse 2

B9 where can I turn Dm7 cause I need something more B9 surrounded by uncertainty Dm7 I'm so unsure B9 tell me why Dm7 I feel so alone B9 cause I need to know Dm7 to whom do I owe

C

Bridge

Gm Bb9 Dm7--Bb9 I thought that we'd make it Gm Bb9 Dm7--Bb9 because you said that we'd make it through Gm and when all securiB9ty fails we'd be Dm7there to help me B9through Guitar 3: In because you said
           x2 this bar
e|-15(x3)-12(x3)--------------------|-15(x3)-12(x3)--------15(x3)-12(x2)--------
B|----------------------------------|-------------------------------------------
G|---------------14(x6)-14h15p14-14-|---------------14(x3)---------------14(x3)-
D|----------------------------------|-------------------------------------------
A|----------------------------------|-------------------------------------------
E|----------------------------------|-------------------------------------------
                                                       x3 this bar
e|-17(x3)---------------17(x3)----------------|-15(x3)-12(x3)--------15(x3)-12(x2)--------
B|--------15(x3)---------------15(x2)---------|-------------------------------------------
G|---------------14(x3)---------------14(x3)--|---------------14(x3)---------------14(x3)-
D|--------------------------------------------|-------------------------------------------
A|--------------------------------------------|-------------------------------------------
E|--------------------------------------------|-------------------------------------------

C

9.) Franklin Key: C Chords used:

Verse 1

Am and when Cwe get home F I know we Cwon't be G/Bhome at all Am this place we Clive F it is Cnot where G/Bwe belong Am and I miss who Cwe were F and the town that Cwe could G/Bcall our own Am going Cback to get away F after CeveryG/Bthing has changed

Chorus

Fcause you remind me of a Amtime when we wereG so aliveF (everything has changed...) do you remember thatAm do you reG/Bmember thatF (everything has changed...) could you help me push aAmside all that GI have ever Fwanted do you remember thatAm do you G/Bremember that
Post Chorus 1:
e|-3-----3-----3-----3---------0-------
B|---0-1---0-1---0-1---0-1-1-3---3-----
G|-------------------------------------
D|-------------------------------------
A|-------------------------------------
E|-------------------------------------

Verse 2

Am so we Cstand here now F and no one Cknows us G/Bat all Am I won't get Cused to this F I won't get Cused to G/Bbeing gone Am and going Cback won't feel the same F if Cwe G/Baren't staying Am going Cback to get away F after CeveryG/Bthing has changed.

C

Post Chorus 2:
e|-------0------
B|---1-----1----
G|-0---0-----0--
D|-------------- (x16)
A|--------------
E|--------------
F taking up our Dm7time (x3) F taking up our time we can'tAm go back we can't go back at all F taking up our time we can'tDm go back we can't go back at all F taking up our time we can'tAm go back we can't go back at all F it's taking up our time Dm taking up our time.

Coda

Fm7 cause you remind me of a time Am when we wereG/B so alive Fm7 do you remember that Am do you reG/Bmember thatFm7 10.) My Heart Key: E Chords used:

Intro

E--A9----C#m--G#m--A9 (x2)
Guitar 2:
E--4-4-4-7-2-2-2/4-4-4-4-4-4-----------------------|
B--------------------------------------------------|
G--------------------------------------------------|
D--------------------------------------------------|
A--------------------------------------------------|
E--------------------------------------------------|
E--7-4-4-2-2-2-7-7-7-7-7-7-------------------------|
B--------------------------------------------------|
G--------------------------------------------------|
D--------------------------------------------------|
A--------------------------------------------------|
E--------------------------------------------------|
E--4-4-4-7-2-2-2/4-4-4-4-4-4-----------------------|
B--------------------------------------------------|
G--------------------------------------------------|
D--------------------------------------------------|
A--------------------------------------------------|
E--------------------------------------------------|
E--7-4-4-2-2-2-0-----------------------------------|
B--------------------------------------------------|
G--------------------------------------------------|
D--------------------------------------------------|
A--------------------------------------------------|
E--------------------------------------------------|

Verse 1

Cm I am Bfinding outA9 that maybe CmI was BwrongA9 Cm that I have Bfallen downA9 and I can't do Cmthis aBloneA9 Cm stay Amwith A9me this is Cmwhat I need, Amplease.A9

Chorus

E sing us a A9song and we'llCm sing it Amback to youA9 E we could sing aA9lone but what would it Cmbe without Amyou?A9

Verse 2

Cm I am Bnothing nowA9 and it's Cmbeen so BlongA9 Cm since I've Bheard a soundA9 the sound of my Cmonly BhomeA9 Cm this AmtimeA9 I will be CmlisteAmningA

C

Interlude

C#m--E--A9----B
Guitar 2: at E
e|-4--2--7--2--4--0-
B|------------------
G|------------------
D|------------------
A|------------------
E|------------------

Bridge

C#m E A9--B this heart it beats beats for only you C#m E A9--B this heart it beats beats for only you YOU!!<-- (Josh screamed) Cm this heart it beatsE beats for only youA9 my heart is yoursB Cm this heart it beatsE beats for only youA9. my heart is yoursB. (my heart beats for you...)<--screamed again

Ba

Cm this heart it beatsE beats for only youA9 my heart is yoursB this heart it beats beats for only you my heart,my heart is yours

Cm

E

A9

B9

Cm

E (please don't fade away) my heart is yours...

A9

(please don't fade B9away) my heart is yours...

Cm

E (please don't fade away) my heart is yours...

A9

(please don't fade B9away) my heart is.Cm.. 11.) Circle Paramore Circle Chords used for guitar 2:

Intro

Guitar 1:
e|-8-8--6-6--1-1--3-3----
B|-9-9--8-8--3-3--4-4----
G|-----------------------
D|----------------------- (x2)
A|-----------------------
E|-----------------------
Guitar 2: Chorded

A5 E/G F5 E5

e|------------------------ B|------------------------ G|----------------8-8----- (x2) D|-6-6--5-5--3-3--8-8----- A|-6-6--6-6--3-3--6-6----- E|-4-4--5-5--1-1----------
Guitar 3: Then this part will enter before the verse
e|-----6------
B|---4---4----
G|-5----------
D|------------
A|------------
E|------------
Guitar 3: While guitar 2 is playing the verses, use this GM7 chord
e|---3------
B|---4------
G|---5------
D|---6------
A|---x------
E|---x------

Verse 1

Atake E/Gthis FmtimeE A5 E/G tFmo rEealizeA E/G Fm E A E/G Fm E that you AalwaE/Gys shFmut yEour eyes A E/G Fm in the Emidst of AtriaE/Gl Fm E A and E/GeverytFmhing Eis always right

Refrain

Fm and I think that it's time this battle must be won but you pushed it aside pushed it aside pretend that it's gone
Guitar 2: Will enter at "but you pushed..."
e|-------------------------11-11-------------------------------
B|---------------------8h9-------11p9p8---------------------9~-
G|-10-10-10-10-8-8-8-8------------------10-10-10-10-8-8-8-8----
D|-------------------------------------------------------------
A|-------------------------------------------------------------
E|-------------------------------------------------------------

Chorus

x2 Cm7 this circle never Fmends Cm7 and it's Fmtime youCm7 just face it, don't preFmtend Cm7 that it's oFmver

Interlude

E5

Guitar 2:
e|-----11---11---
B|-8-9----9----9-
G|---------------
D|--------------- (x4)
A|---------------
E|---------------

Verse 2

Atake E/Gthis FmtimEe toA5 reaE/Glize Fm E A E/G Fm E A E/G Fm E that you AalwaE/Gys foFmrceE a smile A E/G Fm in the Emidst of AtriE/Gal Fm E A and E/GeverytFmhingE is always right

C

Bridge

E and it never Cends E it never Cends E and it never Cends E no, it never Cends
Guitar 2:
e|----------15--------------
B|----16----------16----16--
G|-15----15----15----15-----
D|-------------------------- (x2)
A|--------------------------
E|--------------------------
Guitar 2: cont
e|---------8-----------
B|----9---------9----9-
G|-10---10---10---10---
D|--------------------- (x2)
A|---------------------
E|---------------------

C

12.) Oh Star Key: C Chords used: G - 320003 or 320033

Verse 1

C Oh star fall Am7down on me C Let me make a Am7wish upon you C Hold on, Am7let me think C Think of what I'm Am7wishing for

Refrain

Fm7 Wait,C don't go away. Fm7 Just notC yet. Fm7 Cause I thoughtC, I had it. Fm7 But I forCget.

Chorus

Am And I won't let you Cfall away, From meF. You will never fade. Am And I won't let you Cfall away. F C--Am7(x2) From me. You will never fade away from me.

Verse 2

C And now I let myAm7 dreams consume me, C And tell me what to Am7think. C But hold on,Am7 Hold on. C What am I Am7dreaming?

C

Bridge

Guitar 1: C--Am7--C--F-G-Am-C
Guitar 2:
e|-15-15-15----------------------------19-19-19-------------------------
B|----------17-17-17----------------------------20-20-20----------------
G|-------------------17-17-17-16h17-17-------------------16-16-16-17-16-
D|----------------------------------------------------------------------
A|----------------------------------------------------------------------
E|----------------------------------------------------------------------
e|-19-19-19-------------------------------------------------------------
B|----------20-20-20----------------------------------------------------
G|-------------------16-16-16-17-16-------------------------------------
D|----------------------------------3-3-3-3-5-5-5-5-7-7-7-7-10-10-10-10-
A|----------------------------------3-3-3-3-5-5-5-5-7-7-7-7-10-10-10-10-
E|----------------------------------1-1-1-1-3-3-3-3-5-5-5-5--8--8--8--8-
Do this part on guitar 2 while doing the outro until fade out
e|-15-15-------------------------------------
B|-------17-17-------------------------------
G|-------------16-16-17-17-16-16-14-14-------
D|-------------------------------------17~---
A|-------------------------------------------
E|-------------------------------------------

Outro

Am And I won't let you Cfall away. F You will never fade away. Am And I won't let you Cfall away from me, F C--Am7 You will never... C Oh star fall Am7down on Fm7me. Bo 13.) My Hero Chords used: Guitar 1: Hayley Williams Guitar 2: Hunter Davis Guitar 3: Josh Farro

Intro

Hayley & Hunter G--Em--G--Em--G--Em--Am(Hold)--C(Let Ring)
Josh
          x4 this bar         then this one
e|-3-3-3-3-0h2---0h2-----|---------------
B|-3-3-3-3---3-----3---0-|---------------
G|-------------0-----0---|---------------
D|-----------------------|------2-0------
A|-----------------------|-0--------2-3~-
E|-----------------------|----0----------

Verse 1

Hayley All chords G too aEmlarming now to Gtalk it outEm G take your Empictures down and Gshake it outEm G truth or Emconsequence, Gsay it aEmloud G use that Emevidence Grace it aEmround
Hunter's Part in Verses:
        x4 this bar               x4 this bar
e|-------------------------|----------3--------3-------
B|-3------3-3------0-------|-3------3----3---3---3---3-
G|----0--------0-----0---0-|----0----------0-------0---
D|-5----5---2----2-----2---|-5----5---2----------------
A|-------------------------|---------------------------
E|-------------------------|---------------------------

Chorus

Ba Bun

C there goes my hero watch him as he Ggoes C there goes my hero he's ordinaryG
Josh's Part in Chorus:
           x3 this bar
e|---------------------------------|---------------------------------
B|---------------------------------|-0-0-0-0---------0-0-0-0---------
G|-----------------0-0-0-0-2-2-0-0-|---------2-2-2-2-----------------
D|-2-2-2-2-4-4-4-4-----------------|-------------------------4-4-4-4-
A|---------------------------------|---------------------------------
E|---------------------------------|---------------------------------
Post chorus:
Josh:
e|---------------
B|---------------
G|---------------
D|------2-0------
A|-0--------2-3~-
E|----0----------

Verse 2

G don't the Embest of them Gbleed it outEm G while the Emrest of them Gpeter outEm G truth or Emconsequence, Gsay it aEmloud G use that Emevidence Grace it aEmround

Interlude

Hayley: G--G--G--Em (x2) G(hold)
Hunter:
            x 4 this bar
e|---------------------------------|-------
B|-3-3-3-3-3-3-3-3-3-3-3-3-3-3-3-3-|-0~----
G|---------------------------------|-------
D|---------------------------------|-------
A|---------------------------------|-------
E|---------------------------------|-------
Josh:
     x4 this bar       palm mute in this bar x2
e|-2--3-2----------|---------------------------------
B|--------3--------|---------------------------------
G|-----------------|---------------------------------
D|-----------------|-----5-5-5-5-5-5-5-5-5-5-5-5-5-5-
A|-----------------|-----5-5-5-5-5-5-5-5-5-5-5-5-5-5-
E|-----------------|-----3-3-3-3-3-3-3-3-3-3-3-3-3-3-

Verse 3

G kudos my Emhero Gleaving all the Embest G you know my Emhero the Gone that's Emon