Paramore - Circle Chords

 

A5

variations
4 fr
         
         
         
         
1
3
4
X
X
X
6 fr
         
         
         
         
X
X
1
3
4
X
11 fr
         
         
         
         
X
1
3
4
X
X
4 fr
         
         
         
         
X
X

E/G

variations
         
         
         
         
1
X
X
2
4
3
3 fr
         
         
         
         
X
X
3
1
2
1
8 fr
         
         
         
         
X
3
1
1
1
4
3 fr
         
         
         
         
1
4
3
1
2
1
         
         
         
         
1
3
4
X
X
X
3 fr
         
         
         
         
X
X
1
3
4
X
8 fr
         
         
         
         
X
1
3
4
X
X
         
         
         
         
X
X

E5

variations
         
         
         
         
X
X
1
3
4
X
6 fr
         
         
         
         
X
1
3
4
X
X
11 fr
         
         
         
         
1
3
4
X
X
X
6 fr
         
         
         
         
X
X
         
         
         
         
3
2
4
3 fr
         
         
         
         
1
3
4
2
1
1
         
         
         
         
2
1
3
4
3 fr
         
         
         
         
X
X
3
2
1
1
5 fr
         
         
         
         
X
X
1
3
4
3
7 fr
         
         
         
         
X
4
3
1
2
1

10 fr
         
         
         
         
X
1
2
3
4
X
10 fr
         
         
         
         
X
1
3
3
3
1
12 fr
         
         
         
         
3
2
1
1
1
4

Cm7

variations
4 fr
         
         
         
         
X
1
3
1
2
1
9 fr
         
         
         
         
1
3
1
1
1
1
4 fr
         
         
         
         
X
1
X
2
4
3
         
         
         
         
X
2
1
3
1
4
4 fr
         
         
         
         
X
1
3
1
2
4
         
         
         
         
X
4
2
1

9 fr
         
         
         
         
1
3
1
1
4
1
11 fr
         
         
         
         
X
X
1
3
2
2
         
         
         
         
X
3
2
1
3 fr
         
         
         
         
X
1
2
3
4
1
8 fr
         
         
         
         
1
3
4
2
1
1
3 fr
         
         
         
         
X
1
X
3
4
1
5 fr
         
         
         
         
3
2
1
1
1
4
10 fr
         
         
         
         
X
X
1
3
4
3

12 fr
         
         
         
         
X
4
3
1
2
1
3 fr
         
         
         
         
X

C5

variations
4 fr
         
         
         
         
X
1
3
4
X
X
9 fr
         
         
         
         
1
3
4
X
X
X
11 fr
         
         
         
         
X
X
1
3
4
X
4 fr
         
         
         
         
X
X
No chord
Drop D guitar tuning
No capo

Intro

Guitar 1:
e|-8-8--6-6--1-1--3-3----|
B|-9-9--8-8--3-3--4-4----|
G|-----------------------|
D|-----------------------| (x2)
A|-----------------------|
D|-----------------------|
Guitar 2: Chorded

A5 E/G F5 E5

e|------------------------| B|------------------------| G|------------------------| (x2) D|-6-6--5-5--3-3--1-1-----| A|-6-6--6-6--3-3--1-1-----| D|-6-6--5-5--3-3--1-1-----|
Guitar 3: Then this part will enter before the verse
e|-----6------|
B|---4---4----|
G|-5----------|
D|------------|
A|------------|
D|------------|
Guitar 3: While guitar 2 is playing the verses, use this GM7 chord
e|---3------|
B|---4------|
G|---5------|
D|---6------|
A|---x------|
D|---x------|

Verse 1

A5take E/Gthis F5timE5e A5 E/G F5to E5realizA5e E/G F5 E5 A5 E/G F5 E5 that you A5alwaE/Gys shF5ut E5your eyesA5 E/G F5 in the E5midst of A5triaE/Gl F5 E5 A5 and E5everGytF5hinE5g is always right

Refrain

F5 and I think that it's time this battle must be won but you pushed it aside pushed it aside pretend that it's gone
Guitar 2: Will enter at "but you pushed..."
e|-------------------------11-11-------------------------------|
B|---------------------8h9-------11p9p8---------------------9~-|
G|-10-10-10-10-8-8-8-8------------------10-10-10-10-8-8-8-8----|
D|-------------------------------------------------------------|
A|-------------------------------------------------------------|
D|-------------------------------------------------------------|

Chorus

x2 Cm7 this circle never F5ends Cm7 and it's F5time youCm7 just face it, don't preF5tend Cm7 that it's oF5ver

Interlude

E5

Guitar 2:
e|-----11---11---|
B|-8-9----9----9-|
G|---------------|
D|---------------| (x4)
A|---------------|
D|---------------|

Verse 2

A5take E/Gthis F5timE5e toA5 reaE/Glize F5 E5 A5 E/G F5 E5 A5 E/G F5 E5 that you A5alwaE/Gys foF5rceE5 a smile A5 E/G F5 in the E5midst of A5triaE/Gl F5 E5 A5 and E5everGytF5hinE5g is always right

C

Bridge

E5 and it never C5ends E5 it never C5ends E5 and it never C5ends E5 no, it never C5ends
Guitar 2:
e|----------15--------------|
B|----16----------16----16--|
G|-15----15----15----15-----|
D|--------------------------| (x2)
A|--------------------------|
D|--------------------------|
Guitar 2: cont
e|---------8-----------|
B|----9---------9----9-|
G|-10---10---10---10---|
D|---------------------| (x2)
A|---------------------|
D|---------------------|

C