Paramore - Here We Go Again Chords

Main Riff
Main Riff
Main Riff
 
         
         
         
         
X
1
3
1
2
4 fr
         
         
         
         
2
1
3
1
4
X
5 fr
         
         
         
         
1
3
1
2
1
4

Cm

variations
4 fr
         
         
         
         
X
1
3
4
2
1
9 fr
         
         
         
         
1
3
4
1
1
1
         
         
         
         
X
4
2
1
X
X
         
         
         
         
X
4
3
1
2
X
4 fr
         
         
         
         
X
1
X
X
2
1
11 fr
         
         
         
         
X
X
1
3
4
2

4 fr
         
         
         
         
X
X

B/D

variations
4 fr
         
         
         
         
X
3
1
1
1
X
         
         
         
         
X
X
1
X
3
4 fr
         
         
         
         
X
3
1
1
1
4
         
         
         
         
X
3
2
1
3 fr
         
         
         
         
X
1
2
3
4
1
8 fr
         
         
         
         
1
3
4
2
1
1
3 fr
         
         
         
         
X
1
X
3
4
1
5 fr
         
         
         
         
3
2
1
1
1
4
10 fr
         
         
         
         
X
X
1
3
4
3

12 fr
         
         
         
         
X
4
3
1
2
1
3 fr
         
         
         
         
X
No chord
Standard guitar tuning:
E
A
D
G
B
E
No capo

Intro

A9--Cm (x2)

Guitar 2: / means slide up, \ means slide down, x is dead string
e|-----------------------------------|
B|-----------------------------------|
G|-16--16\11--13--9--8--8-8/9\8/9----|
D|--x---x--x---x--x--x--x-x-x-x-x----|
A|-14--14\-9--11--7--6--6-6/7\6/7----|
E|-----------------------------------|
then
e|-----------------------------------|
B|-----------------------------------|
G|-16--16\11--13--9--8--8-8/9\8\4----|
D|--x---x--x---x--x--x--x-x-x-x-x----|
A|-14--14\-9--11--7--6--6-6/7\6\2----|
E|-----------------------------------|

Verse 1

A9 and here we go againCm, with all the things you A9said, and not a minute spentCm to think that we'd regA9ret. so we just take it backCm, these words and hold our A9breath, forget the Cmthings we swore we A9meant.
Guitar 2: (x4)
e|-4--5--7---7---7---7---7---7----|
B|---------5---5---5---5---5---5--|
G|--------------------------------|
D|--------------------------------|
A|--------------------------------|
E|--------------------------------|
then this one before chorus
e|-4(x4)-5(x4)-7(x4)-5(x2)-4--|
B|----------------------------|
G|----------------------------|
D|----------------------------|
A|----------------------------|
E|----------------------------|

Chorus

Cm I'll write you B/Djust to let you A9know that I'm alCmright. can't say I'm B/Dsad to see youA9 go, cause I'm notCm. (no I'm B/Dnot...) well I'm notA9. Cm B/D A9

Interlude 1

A9--Cm--A9--Cm

Verse 2

A9 and here we go againCm, with all the things we A9did. and now I'm wonderingCm, just who would I have A9been, to be the one attatchedCm at all times to your A9hip. forget the Cmthings we swore we A9meant.

C

Interlude 2

A9--C#m (x2) A9

Bridge

Cm I'll write youB/D to let youA9 know that I'm alright. Cm can't say I'm B/Dsad to see youA9 go, cause I'm notCm. (no I'm B/Dnot...A9) well I'm not.Cm B/D I'm A9not

Outro

and here we go again, with all the things we Cmsaid, and not a minute spent to think that we'd reA9gret (so we just take it back, so we just take it backCm, so we just take it back, so we just take it backA9, so we just take it back, so we just take it backCm, so we just take it back, so we just take it backA9, so we just take it back, so we just take it backCm, B/D A9 Bo