Paramore - Riot Chords

 

F

variations
         
         
         
         
1
3
4
2
1
1
         
         
         
         
X
X
3
2
1
1
6 fr
         
         
         
         
X
4
3
1
2
1
4 fr
         
         
         
         
X
X
1
2
4
3
9 fr
         
         
         
         
X
1
3
3
3
1
11 fr
         
         
         
         
4
3
1
1
1
X

11 fr
         
         
         
         
3
2
1
1
1
4

C

variations
4 fr
         
         
         
         
X
1
2
3
4
1
         
         
         
         
X
4
3
1
2
1
4 fr
         
         
         
         
X
1
4
4
4
X
6 fr
         
         
         
         
4
3
1
1
1
X
6 fr
         
         
         
         
3
2
1
1
1
4
9 fr
         
         
         
         
1
3
4
2
1
1

11 fr
         
         
         
         
X
X
1
3
4
3
         
         
         
         
1
3
4
2
1
1
5 fr
         
         
         
         
X
4
3
1
2
1
3 fr
         
         
         
         
X
X
1
2
4
3
         
         
         
         
X
X
3
2
1
1
8 fr
         
         
         
         
X
1
3
3
3
1
10 fr
         
         
         
         
4
3
1
1
1
X

10 fr
         
         
         
         
3
2
1
1
1
4
7 fr
         
         
         
         
1
3
4
2
1
1
         
         
         
         
X
2
1
X
3
         
         
         
         
X
1
4
4
4
X
         
         
         
         
X
1
3
3
3
1
4 fr
         
         
         
         
4
3
1
1
1
X
4 fr
         
         
         
         
3
2
1
1
1
4

9 fr
         
         
         
         
X
X
1
3
4
3
11 fr
         
         
         
         
X
4
3
1
2
1

Em

variations
6 fr
         
         
         
         
X
1
3
4
2
1
         
         
         
         
X
X
1
3
4
2
3 fr
         
         
         
         
X
4
2
1
X
X
6 fr
         
         
         
         
X
1
X
X
2
1
3 fr
         
         
         
         
X
4
3
1
2
X
11 fr
         
         
         
         
1
3
4
1
1
1

Bm

variations
         
         
         
         
X
1
3
4
2
1
6 fr
         
         
         
         
1
3
4
1
1
1
         
         
         
         
X
1
3
4
2
X
6 fr
         
         
         
         
X
X
3
1
1
1
8 fr
         
         
         
         
X
X
1
3
4
2
10 fr
         
         
         
         
X
4
3
1
2
X

Am

variations
4 fr
         
         
         
         
1
3
4
1
1
1
6 fr
         
         
         
         
X
X
1
3
4
2
4 fr
         
         
         
         
X
X
3
1
1
1
         
         
         
         
4
2
1
X
X
X
8 fr
         
         
         
         
X
4
3
1
2
X
11 fr
         
         
         
         
X
1
3
4
2
1
         
         
         
         
X
3
2
1
3 fr
         
         
         
         
X
1
2
3
4
1
8 fr
         
         
         
         
1
3
4
2
1
1
3 fr
         
         
         
         
X
1
X
3
4
1
5 fr
         
         
         
         
3
2
1
1
1
4
10 fr
         
         
         
         
X
X
1
3
4
3

12 fr
         
         
         
         
X
4
3
1
2
1
3 fr
         
         
         
         
X

A

variations
4 fr
         
         
         
         
1
3
4
2
1
1
4 fr
         
         
         
         
X
X
3
2
1
1
6 fr
         
         
         
         
X
X
1
2
4
3
         
         
         
         
3
2
1
1
1
4
8 fr
         
         
         
         
X
4
3
1
2
1
11 fr
         
         
         
         
X
1
2
3
4
X

11 fr
         
         
         
         
X
1
3
3
3
1

B

variations
         
         
         
         
X
1
2
3
4
1
6 fr
         
         
         
         
1
3
4
2
1
1
         
         
         
         
X
1
4
4
4
X
         
         
         
         
X
1
X
3
4
1
3 fr
         
         
         
         
3
2
1
1
1
4
8 fr
         
         
         
         
X
X
1
3
4
3

10 fr
         
         
         
         
X
4
3
1
2
1
3 fr
         
         
         
         
X
1
3
4
2
1
8 fr
         
         
         
         
1
3
4
1
1
1
         
         
         
         
X
3
1
X
X
         
         
         
         
X
4
1
2
X
8 fr
         
         
         
         
X
X
3
1
1
1
10 fr
         
         
         
         
X
X
1
3
4
2

12 fr
         
         
         
         
X
4
3
1
2
X

E

variations
3 fr
         
         
         
         
X
4
3
1
2
1
6 fr
         
         
         
         
X
1
2
3
4
1
         
         
         
         
X
X
1
2
4
3
3 fr
         
         
         
         
X
4
3
1
2
X
8 fr
         
         
         
         
4
3
1
1
1
X
8 fr
         
         
         
         
3
2
1
1
1
4

11 fr
         
         
         
         
1
3
4
2
1
1
         
         
         
         
2
3
1
4 fr
         
         
         
         
X
4
3
1
2
1
7 fr
         
         
         
         
X
1
4
4
4
X
2 fr
         
         
         
         
X
X
1
2
4
3
4 fr
         
         
         
         
4
3
1
2
1
7 fr
         
         
         
         
X
1
3
3
3
1

9 fr
         
         
         
         
4
3
1
1
1
X
9 fr
         
         
         
         
3
2
1
1
1
4
12 fr
         
         
         
         
1
3
4
2
1
1
4 fr
         
         
         
         
X

B/D

variations
4 fr
         
         
         
         
X
3
1
1
1
X
         
         
         
         
X
X
1
X
3
4 fr
         
         
         
         
X
3
1
1
1
4
         
         
         
         
X
1
2
3
5 fr
         
         
         
         
1
3
4
2
1
1
2 fr
         
         
         
         
X
1
1
1
4
         
         
         
         
X
X
1
2
2 fr
         
         
         
         
3
2
1
1
1
4
7 fr
         
         
         
         
X
X
1
3
4
3

9 fr
         
         
         
         
X
4
3
1
2
1
12 fr
         
         
         
         
X
1
3
3
3
1
         
         
         
         
1
3
4
1
1
1
         
         
         
         
X
X
3
1
1
1
3 fr
         
         
         
         
X
X
1
3
4
2
8 fr
         
         
         
         
X
1
3
4
2
1
5 fr
         
         
         
         
X
4
3
1
2
X
         
         
         
         
3
2
4
3 fr
         
         
         
         
1
3
4
2
1
1
         
         
         
         
2
1
3
4
3 fr
         
         
         
         
X
X
3
2
1
1
5 fr
         
         
         
         
X
X
1
3
4
3
7 fr
         
         
         
         
X
4
3
1
2
1

10 fr
         
         
         
         
X
1
2
3
4
X
10 fr
         
         
         
         
X
1
3
3
3
1
12 fr
         
         
         
         
3
2
1
1
1
4
         
         
         
         
X
X
1
3
2
2 fr
         
         
         
         
X
4
3
1
2
1
5 fr
         
         
         
         
X
1
2
3
4
1
5 fr
         
         
         
         
X
1
4
4
4
X
7 fr
         
         
         
         
4
3
1
1
1
X
7 fr
         
         
         
         
3
2
1
1
1
4

10 fr
         
         
         
         
1
3
4
2
1
1
12 fr
         
         
         
         
X
X
1
3
4
3
5 fr
         
         
         
         
X
X

E/G

variations
         
         
         
         
1
X
X
2
4
3
3 fr
         
         
         
         
X
X
3
1
2
1
8 fr
         
         
         
         
X
3
1
1
1
4
3 fr
         
         
         
         
1
4
3
1
2
1

Fm

variations
         
         
         
         
1
3
4
1
1
1
4 fr
         
         
         
         
X
X
1
3
4
2
         
         
         
         
X
X
3
1
1
1
9 fr
         
         
         
         
X
1
3
4
2
1
6 fr
         
         
         
         
X
4
3
1
2
X
         
         
         
         
X
1
3
4
2
1
7 fr
         
         
         
         
1
3
4
1
1
1
         
         
         
         
X
1
3
4
2
X
7 fr
         
         
         
         
X
X
3
1
1
1
9 fr
         
         
         
         
X
X
1
3
4
2
11 fr
         
         
         
         
X
4
3
1
2
X

Cm

variations
4 fr
         
         
         
         
X
1
3
4
2
1
9 fr
         
         
         
         
1
3
4
1
1
1
         
         
         
         
X
4
2
1
X
X
         
         
         
         
X
4
3
1
2
X
4 fr
         
         
         
         
X
1
X
X
2
1
11 fr
         
         
         
         
X
X
1
3
4
2

4 fr
         
         
         
         
X
X
         
         
         
         
2
3
3 fr
         
         
         
         
X
X
2
4
1
7 fr
         
         
         
         
X
1
3
4
2
1
2 fr
         
         
         
         
X
X
1
3
4
2
3 fr
         
         
         
         
X
3
2
4
1
4 fr
         
         
         
         
X
4
3
1
2
X

12 fr
         
         
         
         
1
3
4
1
1
1

D/F

variations
         
         
         
         
1
2
4
3
         
         
         
         
X
X
3
1
2
1
7 fr
         
         
         
         
X
3
1
1
1
4
2 fr
         
         
         
         
1
4
3
1
2
1
3 fr
         
         
         
         
1
3
4
1
1
1
5 fr
         
         
         
         
X
X
1
3
4
2
3 fr
         
         
         
         
X
X
3
1
1
1
         
         
         
         
1
X
2
3
4
         
         
         
         
3
1
X
X
X
         
         
         
         
2
1
3
4

7 fr
         
         
         
         
X
4
3
1
2
X
10 fr
         
         
         
         
X
1
3
4
2
1
         
         
         
         
1
3
4
X
X
X
3 fr
         
         
         
         
X
X
1
3
4
X
8 fr
         
         
         
         
X
1
3
4
X
X
         
         
         
         
X
X
No chord
Standard guitar tuning:
E
A
D
G
B
E
No capo
Key: F Chords used:

C/F - 143xxx

Intro

Guitar 1: B-F-Em-C-B-F-C (x2)
Guitar 2:
e|----------------------------------|
B|----------------------------------|
G|-16-16\15--11-11\10--16-16\15--18-|
D|--x--x\-x---x--x\-x---x--x\-x---x-| (x2)
A|-14-14\13---9--9\-8--14-14\13--16-|
E|----------------------------------|

Verse 1

F Just talk yourself up And tear yourself downB F You've hit your one wall Now find a way aroundB F# G#m Ebm--C# Well what's the problem? You've got a lot of nerve

Refrain

So Emwhat'd you think I would Bmsay? No you can't run aBway, no you can't run aCway So Emwhat did you think I would CsayF? No you can't run aFway, no you can't run aAmway You wouldn't

Chorus

B I never Cwanted to Emsay this B You never Fwanted to sCtay B I put my Cfaith in you, Emso much faith And then Byou just Cthrew it aFway C You threw it away

Verse 2

F I'm not so naive My sorry eyes can seeB F The way you fly shy Of almost everythingB F# G#m Ebm--C#-- Well, if you give up You'll get what you deserve

C

Bridge

Bass lines You were finished long before We had even seen the start Why don't you stand up, be a man about it? Fight with your bare hands about it Fnow
Bass lines:
G|--------4-3-1-----------4-3-1---|
D|-1--3-4-------4-0-1-3-4-------4-|
A|--------------------------------| (x2)
E|--------------------------------|
Guitar 2: at "Why don't you stop...", your fingers must be VERY FAST in this part Josh Farro did a SEMI SWEEPING here, it's difficult at first but once you master this part, it's easy as 1,2,3.
e|-11-14-11----14-11----14-11----14-11----|
B|----------14-------14-------14-------14-|
G|----------------------------------------|
D|----------------------------------------|
A|----------------------------------------|
E|----------------------------------------|
e|-14-11----14-11----14-11----14-11-------|
B|-------14-------14-------14-------14-11-|
G|----------------------------------------|
D|----------------------------------------|
A|----------------------------------------|
E|----------------------------------------|
e|-11-14-11----14-11----14-11----14-11----|
B|----------14-------14-------14-------14-|
G|----------------------------------------|
D|----------------------------------------|
A|----------------------------------------|
E|----------------------------------------|
e|-14-11----14-11----14-11----14-11--------2-|
B|-------14-------14-------14-------14-11--2-|
G|-----------------------------------------3-|
D|-----------------------------------------4-|
A|-----------------------------------------4-|
E|-----------------------------------------2-|

Outro

B I never Fwanted to Emsay thisC B You never Fwanted to sCtay B I put my Cfaith in you, Emso much faith And then Byou just Cthrew it aFway B I never Cwanted to Emsay this B You never Fwanted to sCtay B I put my Cfaith in you, Emso much faith And then Byou just Cthrew it aFway Ebm(hold)--C#(hold) 2.) That's What You Get Chords used:

Intro

Guitar 1: G#--G#--Bb--Cm-Bb (x2)
Guitar 2:
e|------------|------------|-------------|
B|------------|------------|-------------|
G|-5-5--10/12-|-7-7--12/15-|-12-12-12\10-|
D|-x-x---x/-x-|-x-x---x/-x-|--x--x--x\-x-|
A|-3-3---8/10-|-5-5--10/13-|-10-10-10\-8-|
E|------------|------------|-------------|
x2

Verse 1

ANo sir, well I don't wanna Bbe the blame, Cmnot anymore It's Ayour turn, so take a seat we're Bsettling the Cmfinal score And Awhy do we like to Bhurt, so CmmuchB? I can't deAcide You have made it Bharder just to Cmgo on And Awhy, all the possiBbilities where CmI was wrongE

Chorus

AThat's what you get when you Elet your heart win,Cm whoaB AThat's what you get when you Elet your heart win, Bwhoa I Cmdrowned out all my Bsense with the Cmsound of its beaBting And Athat's what you get when you Elet your heart win,Cm whoaB

Verse 2

I Awonder, how am I supBposed to feel when Cmyou're not here 'Cause AI burned every bridge I Bever built when Cmyou were here I sAtill try holding onto Bsilly things, I Cmnever learn Oh Awhy, all the possiBbilities I'm Cmsure you've heardE

C

Bridge

AHey, make your way to Bme, to Cmme And AI'll always be just Bso inCmviting If AI ever start to Bthink stCmraight This Aheart will start a riot in me B Let's start, sCmtart, hey! AWhy do we like to Bhurt so CmmuchB? Oh Awhy do we like to Bhurt so CmmuchB? TChat's what you get when you let your heart win! B Whoa

Outro

AThat's what you get when you Elet your heart winCm, whoaB AThat's what you get when you Elet your heart winB, whoa Now CmI can't trust myBself with Cmanything but Bthis And Athat's what you get when you Elet your heart winB, whoa G#--G#--Eb(hold) 3.) Hallelujah Chords used:

BFAmEB/D

F B

A

Intro

B--G#m-E x2
Guitar 2:
e|-7-7-7-9-9-9-11-11-11-14-14-14-14-14-------------|
B|-0-0-0-0-0-0--0--0--0--0--0--0--0--0-------------|
G|-------------------------------------------------|
D|-------------------------------------------------|
A|-------------------------------------------------|
E|-------------------------------------------------|

Verse 1

F BSomehow everything's gonna fallAm right inF toB place F Bif we only had a way to make it allAm fall FfasBter everyday F Bif only time flew likeAm a doveF B F Bwe gotta make it flyAm faster than I'm FfalBling in love

Interlude

B

Guitar 2:
e|-7-7-7-9-9-9-11-11-11-14-14-14-14-14-------------|
B|-0-0-0-0-0-0--0--0--0--0--0--0--0--0-------------|
G|-------------------------------------------------|
D|-------------------------------------------------|
A|-------------------------------------------------|
E|-------------------------------------------------|

Chorus 1

B This time we're not giving Amup E B let's make it last foreAmver E screamingF "BhalleluAmjah"E B we'll make it last foreAmver E

Verse 2

F Bholding onto patience wearing AmthinF B F BI can't force these eyes to see the Amend F B F Bif only time flew Amlike a FdovBe F Bwe could watch it fly Am and just FkeeBp looking on

Interlude

B
e|-7-7-7-9-9-9-11-11-11-14-14-14-14-14-------14-------14-------14-|
B|-0-0-0-0-0-0--0--0--0--0--0--0--0--0-11h12----11h12----11h12----|
G|----------------------------------------------------------------|
D|----------------------------------------------------------------|
A|----------------------------------------------------------------|
E|----------------------------------------------------------------|

C

Interlude

B/Eb-E-G#m-B--B/Eb-E-F#
Guitar 2:
e|-----7-----7-----7-----7---7/9\7----|
B|------------------------------------|
G|------------------------------------|
D|-x-x-9-x-x-9-x-x-9-x-x-9-x-9/11\9---| (x2)
A|-x-x-6-x-x-6-x-x-6-x-x-6-x----------|
E|------------------------------------|

Bridge

B/Eb-E-G#m-B-- B/Eb E F# and we've got time on our hands and we've gotB/D got Enothing but Amtime on Bour hands B/D got Enothing butF, got nothing but B/D got Enothing but Ftime on Bour handB/Ds E F

B/D E Am B Am A

Chorus 2

B This time we're not giving Amup E B let's make it last foreAmver E screamingF "BhalleluAmjah"E F "BhalleluAmjah"E

Outro

F B Bo

4.) Misery Business Key: A Chords used: Fm - 133111 or x-8-10-10-9-8

Intro

Silence: Guitar 1: Fm-E-Fm-C (x2) then Fm
Guitar 2:
e|--------6h8p6h8----------------------6h8p6h8------------|
B|-6-6--6---------4-4--4-4-4--4-6-6--6---------6-6--6-6-6-|
G|--------------------------------------------------------|
D|--------------------------------------------------------|
A|--------------------------------------------------------|
E|--------------------------------------------------------|
then
e|--------6h8p6h8----------------------6h8p6h8-16--15-13--|
B|-6-6--6---------4-4--4-4-4--4-6-6--6--------------------|
G|--------------------------------------------------------|
D|--------------------------------------------------------|
A|--------------------------------------------------------|
E|--------------------------------------------------------|
Distortion: Guitar 1: Fm-E-Fm-C (x2) then Fm
Guitar 2:
e|--------------------------------------------------------|
B|----------1---1------------------------1---1------------|
G|-1-1--1-3---3---0-0--0-0-0--0-1-1--1-3---3--------------|
D|---------------------------------------------3-3--3-3-3-|
A|--------------------------------------------------------|
E|--------------------------------------------------------|
then
e|---------------------------------------------------------|
B|----------1---1------------------------1---1-------1-2-4-|
G|-1-1--1-3---3---0-0--0-0-0--0-1-1--1-3---3-----1-3-------|
D|---------------------------------------------3-----------|
A|---------------------------------------------------------|
E|---------------------------------------------------------|

Verse 1

Fm I'm in the business of Emisery Let's take it from the Fmtop She's got a body like an Chourglass that's tickin like a Fmclock It's a matter of Etime before we all run Fmout... When I thought he was Amine she caught him by the mouth Fm I waited eight long Emonths She finally set him Fmfree I told him I can't Clie he was the only one for Fmme Two weeks and we had Ecaught on fire Fm G# Fm--Eb--- She's got it out for me But I wear the biggest smile

Chorus

C whoa... and AI never meant to Ebrag But I Fmgot him where I Ewant him Cnow Whoa... it was Anever my intention to Ebrag To sFmteal it all aEway from you Cnow But God does it feel so Egood Cause I got him where I want him Cnow And if you could then you know you Ewould Cause God it just feels so... It just feels so good

Interlude

Guitar 1: Fm-Eb-Fm-C#---- Guitar 2:
e|--------------------------------------------------------
B|----------1---1------------------------1---1------------|
G|-1-1--1-3---3---0-0--0-0-0--0-1-1--1-3---3--------------|
D|---------------------------------------------3--3--3--3-|
A|--------------------------------------------------------|
E|--------------------------------------------------------|

Verse 2

Fm Second chances they don't Eever matter people never Fmchange Once a whore you're nothing Cmore I'm sorry, that'll never Fmchange And about forgiveEness, we're both supposed to have exFmchanged I'm sorry honey, but I'm passing Aup, now look this Fmway Well there's a million other Egirls who do it just like Fmyou Looking as innocent as Cpossible to get to Fmwho they want and what they like it's eEasy if you do it Fmright G# Fm---Eb--- Well I refuse, I refuse, I REFUSE!!!

C

Coz God it's just feels CsoooooAooooEooooFmoo It just feels Cso goodA...E Fm

Bridge

C I watched his Awildest dreams come Etrue Not one of Fmthem involving Cyou Just watch my Awildest dreams come Etrue Not one of Fmthem involving...

Solo

Guitar 1: C#-G#-Eb-Fm (x2) C#--Eb (x2) Guitar 2:
e|-------------------9-9-9-9-8-8-8-8-|
B|-4h6~--4h6~--4h6~------------------|
G|-----------------------------------|
D|-----------------------------------|
A|-----------------------------------|
E|-----------------------------------|
x2
then x8 means you will pluck the strings 8 times to save space
E|-11(x8)-9(x8)-8(x8)-6(x8)-11(x8)-13(x8)-16-16-16-16-18-18-20-20-15~-|
B|-----------------------------------------------------------------------------|
G|-----------------------------------------------------------------------------|
D|-----------------------------------------------------------------------------|
A|-----------------------------------------------------------------------------|
E|-----------------------------------------------------------------------------|
Chordles: Whoa.. I never meant to brag But I got him where I want him now

C

Outro

Guitar 1: Fm-E-Fm-C (x2) then Fm
Guitar 2:
e|--------------------------------------------------------|
B|----------1---1------------------------1---1------------|
G|-1-1--1-3---3---0-0--0-0-0--0-1-1--1-3---3--------------|
D|---------------------------------------------3-3--3-3-3-|
A|--------------------------------------------------------|
E|--------------------------------------------------------|
then
e|--------------------------------------------------------|
B|----------1---1------------------------1---1------------|
G|-1-1--1-3---3---0-0--0-0-0--0-1-1--1-3---3--------------|
D|---------------------------------------------3--3--3--3-|
A|--------------------------------------------------------|
E|--------------------------------------------------------|
5.) When It Rains Key: E Chords used:

Intro

Cmthen G#--Cm-Eb-G#--Bb-Cm (x2) Eb
Guitar 2:
e|----11-------11-------11----13-------15---------|
B|-11----11-11----11-11----11----11-11------------|
G|------------------------------------------------|
D|------------------------------------------------|
A|------------------------------------------------|
E|------------------------------------------------|
then                                            |(x2)
e|----11-------11-------11------------------------|
B|-11----11-11----11-11----11-9-----8-----9-8-----|
G|------------------------------8-8---8-8---------|
D|------------------------------------------------|
A|------------------------------------------------|
E|------------------------------------------------|
then
e|---
B|---

G|-8-

D|-8-

A|-6-

E|---

Verse 1

And when it Cmrains On this side of Atown it touchesE everyCmthing Just say it aAgain and mean itE We don't miss a Fmthing You made yourself a bed At the bottom of the Eblackest hole (blackest hole) And conFmvinced yourself that It's not the reason you don't Esee the sun anyBmore

Chorus 1

And Aoh, ohCm, how could Eyou do it? AOh I,B I never Cmsaw it coming AOh, oh,Cm I need the Eending So Awhy can't you sBtay Just long eCmnough to exEplain?

Interlude

Cm

Verse 2

And when it Cmrains Will you always Afind an escape?E Just running aCmway From all of the Aones who love youE From everyFmthing You made yourself a bed At the bottom of the Eblackest hole (blackest hole) And you'll Fmsleep 'til May And you'll say that you don't want to Esee the sun anyBmore

C

Bridge

FmTake Eyour AtimeE/G FmTake Emy AtimeE/G FmTake these chances to Eturn it around. (take your time) ATake these chances, we'll make it someE/Ghow And Fmtake these chances to Eturn it around. (take my...) Just Cturn it around.

Chorus 2

AOh,Cm how could you Edo it? AOh IB, I never Cmsaw it coming AOh, oh,Cm I need the Eending So Awhy can't you sBtay Just long eCmnough to exFmplain? You can take your Etime, take myA time 6.) Let The Flames Begin Key: A Key: A Chords used:

Intro

Part 1:
e|---2---2---2---2---2---2---2---2-|---2---2---2---2-|
B|-2---2---2---2-------------------|-0---0---0---0---|
G|-----------------2---2---2---2---|-----------------|
D|---------------------------------|-----------------| (x2)
A|---------------------------------|-----------------|
E|---------------------------------|-----------------|
x2
Part 2: F#m--A--D--Bm
Guitar 2:
e|-----5--0------------5--0-----2-|
B|---2-------2--0----2-------2----|
G|-2---------------2--------------|
D|--------------------------------|
A|--------------------------------|
E|--------------------------------|

Verse 1

Fm What a shame we all beAcame such fragile broken Dthings A memory reBmmains just a tiny spark Fm I give it all my oxyAgen So let the flames beDgin So let the flames beBmgin Oh, glory D Bm Fm Oh, glory

Chorus 1

FmThis is how we Adance when When they Dtry to take us down BmThis is what will Oh, glory

Verse 2

Fm Somewhere weakness is our sAtrength And I'll die searching for Dit I can't let myself regBmret such selfishness Fm My pain and all the trouble Acaused No matter how Dlong I believe that there's Bmhope Buried beneath it all andD Bm Fm Hiding beneath it all, andD Bm E Growing beneath it all, and...

Chorus 2

FmThis is how we Adance when When they Dtry to take us down BmThis is how we'll sing it FmThis is how we'll sAtand when When they Dburn our houses down BmThis is what will be Oh, glory

Bridge

FmReaching as I Asink down into DlightBm FmReaching as I Asink down into DlightBm

C

Outro

e|-9---------------------|---------|
B|---7-------------------|---------|
G|-----9---9-------------|---------|
D|-------------7-7-6-7---|-6--7--9-| x2
A|-------9---9---------9-|---------|
E|-----------------------|---------|
x3 7.) Miracle Key: E Chords used:

Intro

Guitar 1: C#m--A--C#m--B--A--E-F#m (x2) then A(hold)
Gutiar 2: x2
e|---------0-0--------2-2---------0-0-0-0-0-------4-4-4-------7--4--------|
B|------------------------------------------4-4-4-------0-2-2-------4h5p4-|
G|-1-1-2-2-----1-1-2-2----1-1-2-2-----------------------------------------|
D|------------------------------------------------------------------------|
A|------------------------------------------------------------------------|
E|------------------------------------------------------------------------|

Verse 1

A I've goneB for Amtoo longA living Elike I'm not alive A So I'm going to sBtart oAmver toAnight EBeginning with you and AI, When this BmemoAmry Afades I'm gonna Emake sure it's reAplaced With Bchances Amtaken AHope embraced I Ehope I Fmtold you

Chorus

CmI'm not AgoingCm cause I've been Bwaiting for a Amiracle And EI'm not Fmleaving CmI won't Alet youCm Let you Bgive up on a Amiracle Cause Eit might Fmsave youA

Verse 2

A We've learnedB to Amrun fromA AnyEthing uncomfortableA We've Btied our Ampain beAlow and Eno one ever has to Aknow That insideB we're AmbrokenA I tried to Epatch things up again To Acut my tears and Bkill my Amfears A E--F#m--A--B But have I told you how I..

C

Bridge

CmIt's not faith if, if you use your Eeyes Oh Bwhy Cm Get it right this time (this time) Let's leave this all beEhind Oh Bwhy Cm We'll get it right this time It's not faith if you're using your Eeyes Oh Bwhy

Verse 3

A I've goneB for Amtoo longA living Elike I'm not aAlive So I'm going to sBtart oAmver toAnight BeEginning with you and A I don't wantB to Amrun fromA anyEthing uncomfortaAble I just Bwant, Amno A E -break- I just need this pain to end right here

C

Outro

AYeah, it might save youCm Oh, Bit might save youA It's not faith if, if you use your Cmeyes If you use your eyes If you use your Aeyes 8.) CrushCrushCrush Key: E Chords used:

A/C - x365xx

F/B - x143xx

Intro

A C

Verse 1

CmI got a lot to Esay to you Yeah, BI got a lot to Cmsay I Cmnoticed your eyes are Ealways glued to me BKeeping them here And it makes no sense at all

Refrain

AThey taped over your Bmouth Scribbled out the Cmtruth with their lies You little spies

Interlude

A--G#m-G#/C
Guitar 2:
e|-11-12-11--------12--11-|
B|----------12------------|
G|-------------11---------|
D|------------------------|
A|------------------------|
E|------------------------|
Cm Crush Crush Crush Crush, crush

Chorus 1

CmNothing comEpares Bto a quiet evening alone A Just the Cmone Btwo of us who's counting on CmThat never EhapBpens I guess I'm dreaming again A Let's be more Bthan this

Interlude

C#m--B (x2) G#/C
Guitar 2:
e|-4-5-4-2-0-----------------|-4-5-4-2-0------------9-|
B|-----------4-5-4-2-0--0--0-|-----------4-5-4-2-0----|
G|---------------------------|------------------------|
D|---------------------------|------------------------|
A|---------------------------|------------------------|
E|---------------------------|------------------------|

Verse 2

If Cmyou want to play it Elike a game Well, Bcome on, come on, let's Cmplay Cause CmI'd rather waste my Elife pretending Than Bhave to forget you for one whole minute

C

Interlude

C#m-E-B--A (x2)

Bridge

CmRock and Eroll, Bbaby Don't you know Athat Cmwe're all aElone Bnow? I need something to sing aAbout CmRock and Eroll, Bbaby Don't you know Ababy Cmwe're all aElone Bnow? I need something to sing aAbout CmRock and Eroll, Bbaby Don't you know Ababy Cmwe're all aElone Bnow? I need something to sing aAbout

Chorus 2

CmNothing comEpares Bto a quiet evening alone A Just the Cmone Btwo of us who's AcouCnting on CmThat never EhapBpens I guess I'm dreaming again A Let's be more Bthan this

C

Outro

C#m--G#/C--B--F#/Bb--A--B-G#/C-C#m(hold)
Guitar 2:
e|-12--11--12-11-9--11-12--11--12-9------5-4---------11-12-11-12-14-12-11-12-21-|
B|-----------------------------------5-5---------5-4----------------------------|
G|---------------------------------------------4--------------------------------|
D|-------------------------------------------2----------------------------------|
A|------------------------------------------------------------------------------|
E|------------------------------------------------------------------------------|
9.) We Are Broken Key: F Chords used:

F/B - x143xx

Verse 1

B I am FoutBside Em And I've been Fwaiting for the Bsun With my FwidBe eyes Em I've seen Fworlds that don't beBlong My mouthF isB dryEm with words I Fcannot verbaBlize Tell meF whBy Em we live like Fthis

Refrain

B Keep me FsafBe inCside Your arms like towers B Tower oFverB Cme yeah

Chorus

Em Cause we are Fbroken C What must we do to restore Em OurF innocence C And all the promise we adored B Give us Amlife againB cause we just Amwanna be Fwhole

Verse 2

B Lock the FdooBrs Em Cause I like to Fcapture this Bvoice You came to Fme Btonight Em So everyFone will have a Bchoice And under FredB lights Em I'll show myFself it wasn't Bforged We're atF waBr Em We live likeF this

C

Interlude

Am

A--E--B (x2) G#m
Guitar 2:
e|---7----4-----4-|
B|-5----5----7----|
G|----------------|
D|----------------| (x2)
A|----------------|
E|----------------|

Bridge

A Tower Eover BmeAm A Tower Eover BmeAm C And I'll take the truth at any cost

C

10.) Fences Key: D Chords used:

F/B - x143xx

Intro

Bass lines, Bm--F#m (x2)
G|-----------------------------------------------------------------|
D|-----0-2-----0-2---2-0-----2-4-0-----0-2-----0-2---2-0---0---0---|
A|-2-4-----2-4-----------4---------2-4-----2-4-----------4---4---4-|
E|-----------------2-------2-----------------------2---------------|

Verse 1

while doing the bass I'm Bmsitting in a room Made up of only Fmbig white walls and in the halls There's Bmpeople looking through The window though they Fmknow exactly what we're here for EmDon't look up Just let them think There's Ano place else You'd Fmrather be You're Bmalways on display For everyone to watch and Fmlearn from Don't you Emknow by now You can't turn DbackA Because Emthis D/Froad is Gall Ayou'll Dever Fhave

Chorus

Bm And it's obvious that you're Gdying, Emdy-Fing Bm Just living proof that the Gcamera's Emly-Fing And Gopen Emwide, 'cause this is your Gnight So Asmile, 'cause Fyou'll go out in style You'll go out in style

Verse 2

If you Bmlet me I could I'd show you how to Fmbuild your fences Set restrictions, Bmseparate from the world Because the ground that you Fmhate to fight Just blame the limelight EmDon't look up Just let them think There's Ano place else You'd rather be and Emnow you can't turn DbackA Because Emthis D/Froad is Gall Ayou'll Dever Fhave

C

SoF smile,

Bridge

Em Yeah, yeah you're asking for Git With every breath that you Dbreathe in Just Abreathe it in Em Yeah, yeah well you're just a Gmess You do all this, big talk, Dyeah.. So now let's see you walk Ait. I said let's see you walk it.

Solo

Guitar 1: Bm-F#/Bb-A-E/G#-G--F# (x2) then bass lines Bm--G-Em-F# (x2)
Guitar 2:
e|---------------------------------------------|
B|----------------------------------2~--0~--3~-|
G|-4~--2~--4~--2~--4-2-0----4~--2~-------------|
D|-----------------------4---------------------|
A|---------------------------------------------|
E|---------------------------------------------|
then this one while doing the bass lines
e|-7~---9~-10~-12~---14~--12-|
B|---------------------------|
G|---------------------------|
D|---------------------------|
A|---------------------------|
E|---------------------------|
Bass
G|-----------0----------------|
D|-----0-2-4---4------0-------|
A|-2-4--------------2---------| (x2)
E|----------------3------0--2-|
Em Yeah, yeah well you're just a Gmess You do all this, big talk, Dyeah.. So now let's see you walk Ait. I said let's see you walk it.

C

11.) Born For This Key: C Chords used:

Intro

Guitar 1: Bm-A-C-Em (x2) then Bm
Guitar 2:
e|-13--11----------------------11----11----|
B|--------14-11-----13--13--13----13----13-|
G|---------------13------------------------|
D|-----------------------------------------| (x2)
A|-----------------------------------------|
E|-----------------------------------------|

Verse 1

Bm Oh no I just keep on Ffalling (FmBack to the same old) Bm Where's hope when Emmisery comes Ccrawling? (FOh, oh way hey) Bm With your faith you'll trigger a Flandslide (FmVictory) Bm Kill off this Emcommon sense of CmindF

Refrain

It takes acEmquired minds to Bmtaste, to taste, to taste this wine You can't Fdown it with your eyes So Emwe don't need the headlines AWe don't need the headlines We just want Bm (We just want the airwaves back) x2

Chorus

F Everybody Csing Like Fmit's the last song Fyou will ever sing Bm Tell me tell me do you Afeel the pressure now? F Everybody Clive Like Fmit's the last day Fyou will ever see Bm Tell me tell me do you Afeel the pressure Fnow?

Verse 2

Bm Right now you're the only Freason (I'm Fmnot letting go oh) Bm And time out if eEmveryones worth CpleasingF Bm (Ah woah oh) You'll trigger a lFandslide (FmVictory) Bm To kill off their Emfinite state of CmindF

And C

F Everybody Csing Like Fmit's the last song Fyou will ever sing Bm Tell me tell me do you Afeel the pressure

Bridge

x2 F Alright, so you think you're ready? A Okay then you'll say this with me go BmWe were born for this(EmWe were born for this) F Alright, so you think you're ready? A Okay then you'll say this with me go BmWe were born for this(EmWe were born for this) FWe were born for this (AWe were born for this) FWe were born for... FmWe were born for...

C

Outro

F Everybody Csing Like Fmit's the last song Fyou will ever sing Bm Tell me tell me do you Afeel the pressure F Tell me tell me do you feel the pressure

Bm Em F

We were Bmborn for this (We were born for this) We were born for this 12.) Stop This Song Key: E Chords used:

Intro

Guitar 1: Cm-A-E/G-E-Cm-A-E/G-Fm
Guitar 2:
e|---------------------1-------|---6----|
B|-4---3-4---3-4---3-4---4-3---|-6---8--|
G|---3-----3-----3-----------3-|--------|
D|-----------------------------|--------|
A|-----------------------------|--------|
E|-----------------------------|--------|
x2

Verse 1

Cm You say the sweetest things And GmI can't keep my Eheart from singing Cm Along to the sound of your Gmsong My stupid Efeet keep movin' Cm This 4, 4 feet I'm in Gmtime with youE ohh Cm This 4, 4 feet I would Fmdie for youB (die for you) CmSomeone stop this

Refrain 1

E I've Agone to far to come back from Cmhere But you don't have a Eclue You don't know what you Bdo to me

Chorus 1

Cm Won't someone sAtop this song? E/G So EI won't sing along Cm Someone sAtop this song E/G So I Fmwon't sing...
Guitar 2:
e|---------------------1-------|---6----|
B|-4---3-4---3-4---3-4---4-3---|-6---8--|
G|---3-----3-----3-----------3-|--------|
D|-----------------------------|--------|
A|-----------------------------|--------|
E|-----------------------------|--------|
x2

Verse 2

Cm I never let love in so GmI could keep my Eheart from hurting Cm The longer that I live with Gmthis idea The Emore I sink in Cm This 4, 4 feet I'm in Gmtime with youE ohh Cm This 4, 4 feet I would Fmdie for youB (die for you)

Refrain 2

A I've gone to far to come back from Cmhere But you don't have a Eclue You don't know what you Bdo to me A I've gone to far to come oEver here But Gmyou don't have a Aclue You don't know what you Fmdo Eto me

C

Chorus 2

CmLovesick AmelodyE/G is gonna get the Ebest of me tonight Cm But you won't Aget to meE/G, if EI don't sing

Bridge

It Acreeps in like a sCmpider that can't be Ekilled Although I've Btried and Gmtried to Well Adon't you Cmsee? I'm falEling Don't wanna love Byou, but i Ado

Outro

Cm Won't someone sAtop this song? (lovesick melody) E/G So EI won't sing along (lovesick melody oh) CmLovesick AmelodyE/G is gonna get the Ebest of me tonight Cm But you won't Aget to meE/G No you won't get to Eme Cause I won't sing Then Bass lines 13.) Decoy Key: B Chords used:

Intro

Guitar 1: Gm--Bb-F--Gm-Bb-F (x4)

Verse 1

BClose your eyes and Emake believe FThis is where you Gmwanna Ebe ForBgetting all the Ememories Try to forget Flove cause Gmlove's forEgotten me Well Bhey, Ehey baby it's never too late Pretty Fsoon you won't Gmremember a Ething And BI'll Ebe distant as stars reminiscent Your Fheart's Gmbeen Ewasted on me

Refrain

BOhhhE Fohhh-Gmoh-Eoh

Chorus

Gm You've never been so used As I'm using Eyou Abusing Fyou My little decoy Gm Don't look so blue You should've seen right Ethough I'm using Fyou My little decoy My little decoy

Verse 2

BLive a life inEside a dream FTime is Gmchanging Eeverything ForBgetting all Ethe memories And I'm forced into Fyou just Gmcause you're Einto me Well Bhey, Ehey baby it's never too late When I'm F5gone you won't Gmremember a Ething But BI can't sEtay and no, I won't wait I was Fgone from the Gmvery first Eday

C

Bridge

CmOhhh-EAwww-GmAwww FI'm not sorry at Cmall

E Gm

no, no I Fwont be sorry at Cmall

E Gm

no, no F I'd do it over again

Outro

Gm Don't Blook so Eblue FMy little Gmde--Ecoy Gm You should've Bseen right Ethrough FMy little Gmde--Ecoy Gm You've never Bbeen so Eused FMy little Gmde--Ecoy Gm As I'm Busing Eyou FMy little Gmde--Ecoy 15. Decode Key: C Chords used:

Intro

Bm

Guitar 2:
e|-------------------------------------9-----------|
B|-11----------11----------11------------11----11--|
G|----10----10----10----10----10----10------10-----|
D|-------11----------11----------11----------------| x2
A|-------------------------------------------------|
E|-------------------------------------------------|
e|----------------------------------13---------|
B|-11----9----11----9----11----9----------9----|
G|---------------------------------------------|
D|----11---11----11---11----11---11----11---11-|
A|---------------------------------------------|
E|---------------------------------------------|
e|-----------------------------11-|
B|-11----9----11----9----11-------|
G|--------------------------------|
D|----11---11----11---11----11----|
A|--------------------------------|
E|--------------------------------|

Verse 1

F How can I decide what’s right Em when you’re clouding up my Bmmind I can’t win your losing Fmfight all the time F How can I ever own what’s mine Em when you’re always taking Bmsides But you won’t take away my Fmpride no not this FtimeEm Not this BmtimeFm

Chorus 1

F How did we get here Em When I used to know you Bmso wellFm F But how did we get here Em I think I knowBm Fm

Interlude

Bbm--C#-G#--Fm(sudden stop)

Verse 2

F The truth is hiding in your Emeyes and its hanging on your Bmtongue Just boiling in my Fmblood but you think that I cant Fsee What kind of man that you Emare if you’re a man at Bmall Well I will figure this one Fmout on my FownEm I’m screaming I love you Bmso Fm My thoughts you can’t decode

C

Lead solo

F#--Ebm--Bbm--Fm-- x2
Guitar 2:

F Em

e|---------------------------13-----|---------------------------13-----| B|-13h14p13-----13h14p13------------|-13h14p13-----13h14p13------------| G|----------15-----------15------15-|----------15-----------15------15-| D|----------------------------------|----------------------------------| A|----------------------------------|----------------------------------| E|----------------------------------|----------------------------------|
                Bm                     Fm
e|--------------------------------|------------|
B|-13h14p13-----------------------|------------|
G|----------15--15-13-13-13-13-13-|------------|
D|--------------------------------|-10--11--13-|
A|--------------------------------|------------|
E|--------------------------------|------------|
                 F                                 Em
e|---------------------------13-----|---------------------------13-----|
B|-13h14p13-----13h14p13------------|-13h14p13-----13h14p13------------|
G|----------15-----------15------15-|----------15-----------15------15-|
D|----------------------------------|----------------------------------|
A|----------------------------------|----------------------------------|
E|----------------------------------|----------------------------------|
     Bm        Fm
e|---------|-16--18---------|
B|-13---14-|---------14--13-|
G|---------|----------------|
D|---------|----------------|
A|---------|----------------|
E|---------|----------------|

Bridge

Do you Fsee what we’ve Emdone We’re gonna make such Bmfools of ourFmselves Do you Fsee what we’ve Emdone We’re gonna make such Bmfools of ourFselves

Interlude

F#--Ebm--Bbm--Fm--

Chorus 2

F How did we get here Em When I still love you Bmso yeahFm yeah F How did we get here Em When I still love you Bmso Fm

Outro

F# G#--Ebm--Bbm-C# I think I know F#--Bbm--Fm F# G#--Ebm--Bbm-C# I think I know F#--Bbm--Fm F# G# Ebm Bbm-C# There is something FI Bmsee Fmin you FIt Amight Emkill meBm C I Fwant it Bmto be FmtrueEm 16. I Caught Myself Key: E Chords used:

Intro

Josh: Lead
e|-7---7----4-----4-----|
B|-------5----5-----5---|
G|---6----------6-----6-|
A|----------------------|
E|----------------------|
Hunter: Rhythm, enter at 0:08
e|-------2-|--------5------4------2------|
B|-0-2-0---|--0-2-0----0------0------0---|
G|---------|-------------1------1------1-|
D|---------|-----------------------------| x4
A|---------|-----------------------------|
E|---------|-----------------------------|
x2
Jeremy: Bass enter at 0:15, x2

A Cm E

G|-----------------|-6-6-6-6-6-6-6-|-------------------| D|-2/7-7-7-7-7-7-7-|---------------|-2-2-2-2-2-2-2-2-2-| A|-----------------|---------------|-------------------| E|-----------------|---------------|-------------------|
         A                Fm               E
G|-----------------|---------------|-------------------|
D|-2/7-7-7-7-7-7-7-|-4-4-4-4-4-4-4-|-2-2-2-2-2-2-2-2-2-|
A|-----------------|---------------|-------------------|
E|-----------------|---------------|-------------------|

Verse 1

ADon't you Youre pushing and pulling me down to But I dont know what I A Now when I caught myself I had to stop myself Cm Im saying something that E I should have never thought A Now when I caught myself I had to stop myself Fm Im saying something that E I should have never thought of
Hunter: While doing Verse 1 and Refrain
e|-16--------16--------19----19----|
B|----17--------17--------------17-|
G|-------18--------18-----18-------|
A|---------------------------------|
E|---------------------------------|

Refrain

Ayou, oh you, Youre pushing and and pulling me Cmdown too But EI dont know what I Awant No I dont know what I FmwantE

Chorus

You Agot it you got it Some kind of magic HypCmnotic hypnotic Youre Eleaving me breathless I Ahate this I hate this Youre not the one I beFmlieve in With EGod as my witness Post Chorus:
Hunter:
e|-16--------16--------19----19----|
B|----17--------17--------------17-|
G|-------18--------18-----18-------|
D|---------------------------------| x4
A|---------------------------------|
E|---------------------------------|

Interlude

Hunter: A--C#m-E--A--F#m-E(hold)
Josh:

A Cm E

e|-4-5-4-0-2-2-2-2-|-4-5-4-0---------|-----------------| B|-----------------|---------0-0-0-0-|-----------------| G|-----------------|-----------------|-2-2-2-2-1-1-1-1-| D|-----------------|-----------------|-----------------| A|-----------------|-----------------|-----------------| E|-----------------|-----------------|-----------------|
         A                 Fm         E
e|-4-5-4-0-2-2-2-2-|-4-5-4-0---------|---|
B|-----------------|---------0-0-0-0-|-0-|
G|-----------------|-----------------|---|
D|-----------------|-----------------|---|
A|-----------------|-----------------|---|
E|-----------------|-----------------|---|

Bridge

Bass and guitar 2 only A Dont know what I Awant But I know its Anot you Keep pushing and pulling me Adown But I know in my heart its Anot you
Josh:

A A

e|-4-5-4-0-2-|-4-5-4-0---| B|-----------|---------0-| G|-----------|-----------| D|-----------|-----------| x2 A|-----------|-----------| E|-----------|-----------|

Interlude

Hunter: A--C#m-E--A--F#m-E
Josh:
e|-16--------16--------19----19----|-12-12-12-12-12-12-12-12---0-0-0-0-0-0-0-|
B|----17--------17--------------17-|-----------------------------------------|
G|-------18--------18-----18-------|-----------------------------------------|
D|---------------------------------|-----------------------------------------|
A|---------------------------------|-----------------------------------------|
E|---------------------------------|-----------------------------------------|
x6

Verse 2

E Now when I caught myself Fm I had to stop myself Cm Im saying something that A I should have never thought E Now when I caught myself Fm I had to stop myself Cm Im saying something that BI should have never thought of

Outro

EYou I knew I Fmknow in my heart its not Cmyou I knew but Anow I know what I Ewant I Fmwant I Cmwant oh Bno I should have never thought