Pariah - Broken Chords

 
No chord
    
Standard guitar tuning:
E
A
D
G
B
E
No capo
 E|--------------------------------------------------------------
 B|--------------------------------------------------------------
 G|--------------------------------------------------------------
 D|--------------------------------------------------------------
 A|---------7----------------------------------------------------
 D|-0-7-8-7---0-7-8-5--------------------------------------------

Verse

 E|-7-------7---------------5------------------------------------
 B|-0-(x16)-0-(x16)-0-(x16)-0-(x16)------------------------------
 G|-9-------7-------8-------5------------------------------------
 D|-----------------9--------------------------------------------
 A|--------------------------------------------------------------
 D|--------------------------------------------------------------

Chorus

 E|--------------------------------------------------------------
 B|--------------------------------------------------------------
 G|--------------------------------------------------------------
 D|-8-7-8-7-7-5-5-3-5-5------------------------------------------
 A|-8-7-8-7-7-5-5-3-5-5------------------------------------------
 D|-8-7-8-7-7-5-5-3-5-5------------------------------------------
 E|--------------------------------------------------------------
 B|--------------------------------------------------------------
 G|--------------------------------------------------------------
 D|-8-7-8-7-7-5-5-3-5-7-8----------------------------------------
 A|-8-7-8-7-7-5-5-3-5-7-8----------------------------------------
 D|-8-7-8-7-7-5-5-3-5-7-8----------------------------------------
 E|--------------------------------------------------------------
 B|--------------------------------------------------------------
 G|--------------------------------------------------------------
 D|-5-7-8-7-5-5-7-8-7-5-5-3-5-5----------------------------------
 A|-5-7-8-7-5-5-7-8-7-5-5-3-5-5----------------------------------
 D|-5-7-8-7-5-5-7-8-7-5-5-3-5-5---------