Parokya Ni Edgar - Taemo Pesticide Chords

 
No chord
Standard guitar tuning:
E
A
D
G
B
E
No capo
E|-0----2----|
B|-2----3----|
G|-1----4----|
D|-2----4----|
A|-0----2----|
E|(0)--(2)---| "Ay itong...taemo.."
E|-0----0~----|
B|-2----0~----|
G|-1----1~----|
D|-2----2~----|
A|-0----2~----|
E|(0)---0~----| "Isa, dalawa, tatlo, taemo!" "Tumatagal ang bisa.."
E|-2------|
B|-3--2---|
G|-2--2---|
D|-0--2---|
A|----0---|
E|--------|
"Kay daling lipunin..."
E|-0--2---|
B|-2--3---|
G|-2--2---|
D|-2--0---|
A|-0------|
E|--------|
"..huwag kang malulungkot.."
E|-3--2---|
B|-3--3---|
G|-0--2---|
D|-0--0---|
A|-2------|
E|-3------|
"Peste'y walang lusot!"
E|-0--2---|
B|-2--3---|
G|-2--2---|
D|-2--0---|
A|-0------|
E|--------|
Manor, TX. October 7, 2004, 6:34 PM Instead of the foretranscribed riff
e|---------------12s/---------|
b|----------9-----------------|
g|-------10---10--------------|
d|-----9----------------------|
a|--11------------------------|
e|----------------------------|
the riff should be
e|----------9-----12s/---------|
b|-------10---10---------------|
g|-----9-----------------------|
d|--11-------------------------|
a|-----------------------------|
e|-----------------------------|
I was hurriedly tabbing it mentally, hence the error.. my apologies. My warmest thanks to: AFS INTERCULTURAL PROGRAMS PHILIPPINES REPUBLIC OF THE PHILIPPINES Division of City Schools of Makati Mayor Jejomar C Binay Ms Elena R Ruiz MAKATI SCIENCE HIGH SCHOOL Eric Ebia, Jr (BISYO NA 'TO!!!) Hanz Billy John Magat Francis Vincent Co Jodessa Piloton Reinzy Colle John Santos Janie Maye Mamangon Camille Vanessa Vidad Maria Christina Santiago Reyes Dedicated to... J.A.S.B. 2004 (Love ko 'to!)